  0
SECTION
  2
HEADER
  9
$ACADVER
  1
AC1015
  9
$ACADMAINTVER
 70
    20
  9
$DWGCODEPAGE
  3
ANSI_932
  9
$INSBASE
 10
0.0
 20
0.0
 30
0.0
  9
$EXTMIN
 10
-270.0164782349211
 20
-405.8021109186667
 30
-0.0015258207003583
  9
$EXTMAX
 10
270.0164807494923
 20
397.0880822710251
 30
0.0000000349246037
  9
$LIMMIN
 10
0.0
 20
0.0
  9
$LIMMAX
 10
0.0
 20
0.0
  9
$ORTHOMODE
 70
     0
  9
$REGENMODE
 70
     1
  9
$FILLMODE
 70
     1
  9
$QTEXTMODE
 70
     0
  9
$MIRRTEXT
 70
     1
  9
$LTSCALE
 40
15.24
  9
$ATTMODE
 70
     1
  9
$TEXTSIZE
 40
0.0
  9
$TRACEWID
 40
1.0
  9
$TEXTSTYLE
  7
STANDARD
  9
$CLAYER
  8
DATA
  9
$CELTYPE
  6
ByLayer
  9
$CECOLOR
 62
   256
  9
$CELTSCALE
 40
1.0
  9
$DISPSILH
 70
     0
  9
$DIMSCALE
 40
1.0
  9
$DIMASZ
 40
0.18
  9
$DIMEXO
 40
0.0625
  9
$DIMDLI
 40
0.38
  9
$DIMRND
 40
0.0
  9
$DIMDLE
 40
0.0
  9
$DIMEXE
 40
0.18
  9
$DIMTP
 40
0.0
  9
$DIMTM
 40
0.0
  9
$DIMTXT
 40
0.18
  9
$DIMCEN
 40
0.09
  9
$DIMTSZ
 40
0.0
  9
$DIMTOL
 70
     0
  9
$DIMLIM
 70
     0
  9
$DIMTIH
 70
     1
  9
$DIMTOH
 70
     1
  9
$DIMSE1
 70
     0
  9
$DIMSE2
 70
     0
  9
$DIMTAD
 70
     0
  9
$DIMZIN
 70
     0
  9
$DIMBLK
  1

  9
$DIMASO
 70
     1
  9
$DIMSHO
 70
     1
  9
$DIMPOST
  1

  9
$DIMAPOST
  1

  9
$DIMALT
 70
     0
  9
$DIMALTD
 70
     2
  9
$DIMALTF
 40
25.4
  9
$DIMLFAC
 40
1.0
  9
$DIMTOFL
 70
     0
  9
$DIMTVP
 40
0.0
  9
$DIMTIX
 70
     0
  9
$DIMSOXD
 70
     0
  9
$DIMSAH
 70
     0
  9
$DIMBLK1
  1

  9
$DIMBLK2
  1

  9
$DIMSTYLE
  2
STANDARD
  9
$DIMCLRD
 70
     0
  9
$DIMCLRE
 70
     0
  9
$DIMCLRT
 70
     0
  9
$DIMTFAC
 40
1.0
  9
$DIMGAP
 40
0.09
  9
$DIMJUST
 70
     0
  9
$DIMSD1
 70
     0
  9
$DIMSD2
 70
     0
  9
$DIMTOLJ
 70
     1
  9
$DIMTZIN
 70
     0
  9
$DIMALTZ
 70
     0
  9
$DIMALTTZ
 70
     0
  9
$DIMUPT
 70
     0
  9
$DIMDEC
 70
     4
  9
$DIMTDEC
 70
     4
  9
$DIMALTU
 70
     2
  9
$DIMALTTD
 70
     2
  9
$DIMTXSTY
  7
STANDARD
  9
$DIMAUNIT
 70
     0
  9
$DIMADEC
 70
     0
  9
$DIMALTRND
 40
0.0
  9
$DIMAZIN
 70
     0
  9
$DIMDSEP
 70
    46
  9
$DIMATFIT
 70
     3
  9
$DIMFRAC
 70
     0
  9
$DIMLDRBLK
  1

  9
$DIMLUNIT
 70
     2
  9
$DIMLWD
 70
    -2
  9
$DIMLWE
 70
    -2
  9
$DIMTMOVE
 70
     0
  9
$LUNITS
 70
     2
  9
$LUPREC
 70
     4
  9
$SKETCHINC
 40
0.1
  9
$FILLETRAD
 40
0.0
  9
$AUNITS
 70
     0
  9
$AUPREC
 70
     0
  9
$MENU
  1
acad
  9
$ELEVATION
 40
0.0
  9
$PELEVATION
 40
0.0
  9
$THICKNESS
 40
0.0
  9
$LIMCHECK
 70
     0
  9
$CHAMFERA
 40
0.0
  9
$CHAMFERB
 40
0.0
  9
$CHAMFERC
 40
0.0
  9
$CHAMFERD
 40
0.0
  9
$SKPOLY
 70
     0
  9
$TDCREATE
 40
2458087.724895833
  9
$TDUCREATE
 40
2458087.349895833
  9
$TDUPDATE
 40
2458087.727754630
  9
$TDUUPDATE
 40
2458087.352754630
  9
$TDINDWG
 40
0.0003240741
  9
$TDUSRTIMER
 40
0.0003240741
  9
$USRTIMER
 70
     1
  9
$ANGBASE
 50
0.0
  9
$ANGDIR
 70
     0
  9
$PDMODE
 70
     1
  9
$PDSIZE
 40
-2.0
  9
$PLINEWID
 40
0.0
  9
$SPLFRAME
 70
     0
  9
$SPLINETYPE
 70
     6
  9
$SPLINESEGS
 70
     8
  9
$HANDSEED
  5
476
  9
$SURFTAB1
 70
     6
  9
$SURFTAB2
 70
     6
  9
$SURFTYPE
 70
     6
  9
$SURFU
 70
     6
  9
$SURFV
 70
     6
  9
$UCSBASE
  2

  9
$UCSNAME
  2

  9
$UCSORG
 10
0.0
 20
0.0
 30
0.0
  9
$UCSXDIR
 10
1.0
 20
0.0
 30
0.0
  9
$UCSYDIR
 10
0.0
 20
1.0
 30
0.0
  9
$UCSORTHOREF
  2

  9
$UCSORTHOVIEW
 70
     0
  9
$UCSORGTOP
 10
0.0
 20
0.0
 30
0.0
  9
$UCSORGBOTTOM
 10
0.0
 20
0.0
 30
0.0
  9
$UCSORGLEFT
 10
0.0
 20
0.0
 30
0.0
  9
$UCSORGRIGHT
 10
0.0
 20
0.0
 30
0.0
  9
$UCSORGFRONT
 10
0.0
 20
0.0
 30
0.0
  9
$UCSORGBACK
 10
0.0
 20
0.0
 30
0.0
  9
$PUCSBASE
  2

  9
$PUCSNAME
  2

  9
$PUCSORG
 10
0.0
 20
0.0
 30
0.0
  9
$PUCSXDIR
 10
1.0
 20
0.0
 30
0.0
  9
$PUCSYDIR
 10
0.0
 20
1.0
 30
0.0
  9
$PUCSORTHOREF
  2

  9
$PUCSORTHOVIEW
 70
     0
  9
$PUCSORGTOP
 10
0.0
 20
0.0
 30
0.0
  9
$PUCSORGBOTTOM
 10
0.0
 20
0.0
 30
0.0
  9
$PUCSORGLEFT
 10
0.0
 20
0.0
 30
0.0
  9
$PUCSORGRIGHT
 10
0.0
 20
0.0
 30
0.0
  9
$PUCSORGFRONT
 10
0.0
 20
0.0
 30
0.0
  9
$PUCSORGBACK
 10
0.0
 20
0.0
 30
0.0
  9
$USERI1
 70
     0
  9
$USERI2
 70
     0
  9
$USERI3
 70
     0
  9
$USERI4
 70
     0
  9
$USERI5
 70
     0
  9
$USERR1
 40
0.0
  9
$USERR2
 40
0.0
  9
$USERR3
 40
0.0
  9
$USERR4
 40
0.0
  9
$USERR5
 40
0.0
  9
$WORLDVIEW
 70
     1
  9
$SHADEDGE
 70
     3
  9
$SHADEDIF
 70
    70
  9
$TILEMODE
 70
     1
  9
$MAXACTVP
 70
    64
  9
$PINSBASE
 10
0.0
 20
0.0
 30
0.0
  9
$PLIMCHECK
 70
     0
  9
$PEXTMIN
 10
1.000000000000000E+20
 20
1.000000000000000E+20
 30
1.000000000000000E+20
  9
$PEXTMAX
 10
-1.000000000000000E+20
 20
-1.000000000000000E+20
 30
-1.000000000000000E+20
  9
$PLIMMIN
 10
0.0
 20
0.0
  9
$PLIMMAX
 10
12.0
 20
9.0
  9
$UNITMODE
 70
     0
  9
$VISRETAIN
 70
     0
  9
$PLINEGEN
 70
     1
  9
$PSLTSCALE
 70
     0
  9
$TREEDEPTH
 70
  3020
  9
$CMLSTYLE
  2
Standard
  9
$CMLJUST
 70
     0
  9
$CMLSCALE
 40
1.0
  9
$PROXYGRAPHICS
 70
     1
  9
$MEASUREMENT
 70
     0
  9
$CELWEIGHT
370
    -1
  9
$ENDCAPS
280
     0
  9
$JOINSTYLE
280
     0
  9
$LWDISPLAY
290
     0
  9
$INSUNITS
 70
     0
  9
$HYPERLINKBASE
  1

  9
$STYLESHEET
  1

  9
$XEDIT
290
     1
  9
$CEPSNTYPE
380
     0
  9
$PSTYLEMODE
290
     1
  9
$FINGERPRINTGUID
  2
{4656C9BE-99A5-7440-9272-99AC021A7CCB}
  9
$VERSIONGUID
  2
{3099827D-62ED-2B47-85CF-845A25780A6E}
  9
$EXTNAMES
290
     1
  9
$PSVPSCALE
 40
0.0
  9
$OLESTARTUP
290
     0
  0
ENDSEC
  0
SECTION
  2
CLASSES
  0
CLASS
  1
ACDBDICTIONARYWDFLT
  2
AcDbDictionaryWithDefault
  3
ObjectDBX Classes
 90
        0
280
     0
281
     0
  0
CLASS
  1
MATERIAL
  2
AcDbMaterial
  3
ObjectDBX Classes
 90
     1153
280
     0
281
     0
  0
CLASS
  1
VISUALSTYLE
  2
AcDbVisualStyle
  3
ObjectDBX Classes
 90
     4095
280
     0
281
     0
  0
CLASS
  1
SCALE
  2
AcDbScale
  3
ObjectDBX Classes
 90
     1153
280
     0
281
     0
  0
CLASS
  1
TABLESTYLE
  2
AcDbTableStyle
  3
ObjectDBX Classes
 90
     4095
280
     0
281
     0
  0
CLASS
  1
MLEADERSTYLE
  2
AcDbMLeaderStyle
  3
ACDB_MLEADERSTYLE_CLASS
 90
     4095
280
     0
281
     0
  0
CLASS
  1
ACDBSECTIONVIEWSTYLE
  2
AcDbSectionViewStyle
  3
ObjectDBX Classes
 90
     1025
280
     0
281
     0
  0
CLASS
  1
ACDBDETAILVIEWSTYLE
  2
AcDbDetailViewStyle
  3
ObjectDBX Classes
 90
     1025
280
     0
281
     0
  0
CLASS
  1
DICTIONARYVAR
  2
AcDbDictionaryVar
  3
ObjectDBX Classes
 90
        0
280
     0
281
     0
  0
CLASS
  1
CELLSTYLEMAP
  2
AcDbCellStyleMap
  3
ObjectDBX Classes
 90
     1152
280
     0
281
     0
  0
CLASS
  1
ACDBPLACEHOLDER
  2
AcDbPlaceHolder
  3
ObjectDBX Classes
 90
        0
280
     0
281
     0
  0
CLASS
  1
LAYOUT
  2
AcDbLayout
  3
ObjectDBX Classes
 90
        0
280
     0
281
     0
  0
ENDSEC
  0
SECTION
  2
TABLES
  0
TABLE
  2
VPORT
  5
3A0
330
0
100
AcDbSymbolTable
 70
     1
  0
VPORT
  5
40C
330
3A0
100
AcDbSymbolTableRecord
100
AcDbViewportTableRecord
  2
*ACTIVE
 70
     0
 10
0.0
 20
0.0
 11
1.0
 21
1.0
 12
0.0000012572854757
 22
-4.357014323820862
 13
0.0
 23
0.0
 14
1.0
 24
1.0
 15
0.0
 25
0.0
 16
0.0
 26
0.0
 36
1.0
 17
0.0
 27
0.0
 37
0.0
 40
809.3913283572197
 41
2.567567567567567
 42
50.0
 43
0.0
 44
0.0
 50
0.0
 51
0.0
 71
     0
 72
  2000
 73
     1
 74
     1
 75
     0
 76
     0
 77
     0
 78
     0
281
     0
 65
     1
110
0.0
120
0.0
130
0.0
111
1.0
121
0.0
131
0.0
112
0.0
122
1.0
132
0.0
 79
     0
146
0.0
1001
ACAD_NAV_VCDISPLAY
1070
     3
  0
ENDTAB
  0
TABLE
  2
LTYPE
  5
39D
330
0
100
AcDbSymbolTable
 70
    11
  0
LTYPE
  5
3F2
330
39D
100
AcDbSymbolTableRecord
100
AcDbLinetypeTableRecord
  2
ByBlock
 70
     0
  3

 72
    65
 73
     0
 40
0.0
  0
LTYPE
  5
3F3
330
39D
100
AcDbSymbolTableRecord
100
AcDbLinetypeTableRecord
  2
ByLayer
 70
     0
  3

 72
    65
 73
     0
 40
0.0
  0
LTYPE
  5
3F4
330
39D
100
AcDbSymbolTableRecord
100
AcDbLinetypeTableRecord
  2
CONTINUOUS
 70
     0
  3
Solid line
 72
    65
 73
     0
 40
0.0
  0
ENDTAB
  0
TABLE
  2
LAYER
  5
39A
330
0
100
AcDbSymbolTable
 70
     5
  0
LAYER
  5
3EC
102
{ACAD_XDICTIONARY
360
420
102
}
330
39A
100
AcDbSymbolTableRecord
100
AcDbLayerTableRecord
  2
0
 70
     0
 62
     7
  6
CONTINUOUS
370
    -3
390
3A7
  0
LAYER
  5
40B
102
{ACAD_XDICTIONARY
360
422
102
}
330
39A
100
AcDbSymbolTableRecord
100
AcDbLayerTableRecord
  2
DATA
 70
     0
 62
     7
  6
CONTINUOUS
370
    -3
390
3A7
  0
LAYER
  5
417
102
{ACAD_XDICTIONARY
360
424
102
}
330
39A
100
AcDbSymbolTableRecord
100
AcDbLayerTableRecord
  2
HIBINO-BASE
 70
     0
 62
     7
  6
CONTINUOUS
370
    -3
390
3A7
  0
LAYER
  5
418
102
{ACAD_XDICTIONARY
360
426
102
}
330
39A
100
AcDbSymbolTableRecord
100
AcDbLayerTableRecord
  2
SPEC
 70
     0
 62
     7
  6
CONTINUOUS
370
    -3
390
3A7
  0
LAYER
  5
419
102
{ACAD_XDICTIONARY
360
428
102
}
330
39A
100
AcDbSymbolTableRecord
100
AcDbLayerTableRecord
  2
DIMNSIONS
 70
     0
 62
     7
  6
CONTINUOUS
370
    -3
390
3A7
  0
ENDTAB
  0
TABLE
  2
STYLE
  5
39B
330
0
100
AcDbSymbolTable
 70
     3
  0
STYLE
  5
3ED
330
39B
100
AcDbSymbolTableRecord
100
AcDbTextStyleTableRecord
  2
STANDARD
 70
     0
 40
0.0
 41
1.0
 50
0.0
 71
     0
 42
0.0
  3
txt
  4
BIGFONT.SHX
  0
ENDTAB
  0
TABLE
  2
VIEW
  5
39E
330
0
100
AcDbSymbolTable
 70
     0
  0
ENDTAB
  0
TABLE
  2
UCS
  5
39F
330
0
100
AcDbSymbolTable
 70
     0
  0
ENDTAB
  0
TABLE
  2
APPID
  5
3A1
330
0
100
AcDbSymbolTable
 70
     4
  0
APPID
  5
3EE
330
3A1
100
AcDbSymbolTableRecord
100
AcDbRegAppTableRecord
  2
ACAD
 70
     0
  0
APPID
  5
3F5
330
3A1
100
AcDbSymbolTableRecord
100
AcDbRegAppTableRecord
  2
AcadAnnotative
 70
     0
  0
APPID
  5
434
330
3A1
100
AcDbSymbolTableRecord
100
AcDbRegAppTableRecord
  2
ACAD_NAV_VCDISPLAY
 70
     0
  0
APPID
  5
46D
330
3A1
100
AcDbSymbolTableRecord
100
AcDbRegAppTableRecord
  2
ACAD_MLEADERVER
 70
     0
  0
ENDTAB
  0
TABLE
  2
DIMSTYLE
  5
3A2
330
0
100
AcDbSymbolTable
 70
     2
100
AcDbDimStyleTable
 71
     0
  0
DIMSTYLE
105
3EF
330
3A2
100
AcDbSymbolTableRecord
100
AcDbDimStyleTableRecord
  2
STANDARD
 70
     0
279
     2
340
3ED
  0
ENDTAB
  0
TABLE
  2
BLOCK_RECORD
  5
399
330
0
100
AcDbSymbolTable
 70
     0
  0
BLOCK_RECORD
  5
407
330
399
100
AcDbSymbolTableRecord
100
AcDbBlockTableRecord
  2
*Model_Space
340
40A
  0
BLOCK_RECORD
  5
403
330
399
100
AcDbSymbolTableRecord
100
AcDbBlockTableRecord
  2
*Paper_Space
340
406
  0
ENDTAB
  0
ENDSEC
  0
SECTION
  2
BLOCKS
  0
BLOCK
  5
408
330
407
100
AcDbEntity
  8
0
100
AcDbBlockBegin
  2
*Model_Space
 70
     0
 10
0.0
 20
0.0
 30
0.0
  3
*Model_Space
  1

  0
ENDBLK
  5
409
330
407
100
AcDbEntity
  8
0
100
AcDbBlockEnd
  0
BLOCK
  5
404
330
403
100
AcDbEntity
 67
     1
  8
0
100
AcDbBlockBegin
  2
*Paper_Space
 70
     0
 10
0.0
 20
0.0
 30
0.0
  3
*Paper_Space
  1

  0
ENDBLK
  5
405
330
403
100
AcDbEntity
 67
     1
  8
0
100
AcDbBlockEnd
  0
ENDSEC
  0
SECTION
  2
ENTITIES
  0
LINE
  5
2C
330
407
100
AcDbEntity
  8
HIBINO-BASE
  6
Continuous
 62
     7
100
AcDbLine
 10
-269.9999999999999
 20
397.06363
 30
0.0
 11
269.9999999999999
 21
397.06363
 31
0.0
  0
LINE
  5
2D
330
407
100
AcDbEntity
  8
HIBINO-BASE
  6
Continuous
 62
     7
100
AcDbLine
 10
269.9999999999999
 20
-382.93637
 30
0.0
 11
-269.9999999999999
 21
-382.93637
 31
0.0
  0
LINE
  5
2E
330
407
100
AcDbEntity
  8
HIBINO-BASE
  6
Continuous
 62
     7
100
AcDbLine
 10
-269.9999999999999
 20
-382.93637
 30
0.0
 11
-269.9999999999999
 21
397.06363
 31
0.0
  0
LINE
  5
2F
330
407
100
AcDbEntity
  8
HIBINO-BASE
  6
Continuous
 62
     7
100
AcDbLine
 10
269.9999999999999
 20
397.06363
 30
0.0
 11
269.9999999999999
 21
-382.93637
 31
0.0
  0
LINE
  5
30
330
407
100
AcDbEntity
  8
HIBINO-BASE
  6
Continuous
 62
     7
100
AcDbLine
 10
0.0000000000000426
 20
-315.4363699999999
 30
0.0
 11
269.9999999999999
 21
-315.4363699999999
 31
0.0
  0
LINE
  5
31
330
407
100
AcDbEntity
  8
HIBINO-BASE
  6
Continuous
 62
     7
100
AcDbLine
 10
0.0000000000000426
 20
-382.93637
 30
0.0
 11
0.0000000000000426
 21
-315.4363699999999
 31
0.0
  0
TEXT
  5
32
330
407
100
AcDbEntity
  8
HIBINO-BASE
 62
     7
100
AcDbText
 10
2.700000000000059
 20
-322.9624499999999
 30
0.0
 40
4.886523437499999
  1
NOTE
 41
0.7
 11
2.70000000000006
 21
-318.0759265624999
 31
0.0
100
AcDbText
 73
     3
  0
LINE
  5
33
330
407
100
AcDbEntity
  8
HIBINO-BASE
  6
Continuous
 62
     7
100
AcDbLine
 10
105.0
 20
-382.93637
 30
0.0
 11
105.0
 21
-315.4363699999999
 31
0.0
  0
TEXT
  5
34
330
407
100
AcDbEntity
  8
HIBINO-BASE
 62
     7
100
AcDbText
 10
107.6999999999999
 20
-322.9624499999999
 30
0.0
 40
4.886523437499999
  1
TITLE
 41
0.7
 11
107.6999999999999
 21
-318.0759265624999
 31
0.0
100
AcDbText
 73
     3
  0
LINE
  5
35
330
407
100
AcDbEntity
  8
HIBINO-BASE
  6
Continuous
 62
     7
100
AcDbLine
 10
0.0000000000000426
 20
-352.9363699999999
 30
0.0
 11
269.9999999999999
 21
-352.9363699999999
 31
0.0
  0
TEXT
  5
36
330
407
100
AcDbEntity
  8
HIBINO-BASE
 62
     7
100
AcDbText
 10
145.2
 20
-360.29349
 30
0.0
 40
4.886523437499999
  1
DRAWN
 41
0.7
 11
145.2
 21
-355.4069665625
 31
0.0
100
AcDbText
 73
     3
  0
TEXT
  5
37
330
407
100
AcDbEntity
  8
HIBINO-BASE
 62
     7
100
AcDbText
 10
70.19999999999997
 20
-360.29349
 30
0.0
 40
4.886523437499999
  1
DATE
 41
0.7
 11
70.19999999999997
 21
-355.4069665625
 31
0.0
100
AcDbText
 73
     3
  0
TEXT
  5
38
330
407
100
AcDbEntity
  8
HIBINO-BASE
 62
     7
100
AcDbText
 10
40.19999999999996
 20
-360.29349
 30
0.0
 40
4.886523437499999
  1
SCALE
 41
0.7
 11
40.19999999999996
 21
-355.4069665625
 31
0.0
100
AcDbText
 73
     3
  0
TEXT
  5
39
330
407
100
AcDbEntity
  8
HIBINO-BASE
 62
     7
100
AcDbText
 10
107.6999999999999
 20
-360.29349
 30
0.0
 40
4.886523437499999
  1
DESIGN
 41
0.7
 11
107.6999999999999
 21
-355.4069665625
 31
0.0
100
AcDbText
 73
     3
  0
TEXT
  5
3A
330
407
100
AcDbEntity
  8
HIBINO-BASE
 62
     7
100
AcDbText
 10
220.2
 20
-360.29349
 30
0.0
 40
4.886523437499999
  1
DRAWING NO.
 41
0.7
 11
220.2
 21
-355.4069665625
 31
0.0
100
AcDbText
 73
     3
  0
TEXT
  5
3B
330
407
100
AcDbEntity
  8
HIBINO-BASE
 62
     7
100
AcDbText
 10
182.7
 20
-360.29349
 30
0.0
 40
4.886523437499999
  1
CHECK
 41
0.7
 11
182.7
 21
-355.4069665625
 31
0.0
100
AcDbText
 73
     3
  0
LINE
  5
3C
330
407
100
AcDbEntity
  8
HIBINO-BASE
  6
Continuous
 62
     7
100
AcDbLine
 10
43.12500000000003
 20
-379.18637
 30
0.0
 11
54.37500000000003
 21
-367.93637
 31
0.0
  0
TEXT
  5
3D
330
407
100
AcDbEntity
  8
HIBINO-BASE
 62
     7
100
AcDbText
 10
41.25000000000003
 20
-371.2632
 30
0.0
 40
4.886523437499999
  1
1
 41
0.7
 11
41.25000000000003
 21
-366.3766765625
 31
0.0
100
AcDbText
 73
     3
  0
LINE
  5
3E
330
407
100
AcDbEntity
  8
HIBINO-BASE
  6
Continuous
 62
     7
100
AcDbLine
 10
37.50000000000003
 20
-382.93637
 30
0.0
 11
37.50000000000003
 21
-352.9363699999999
 31
0.0
  0
LINE
  5
3F
330
407
100
AcDbEntity
  8
HIBINO-BASE
  6
Continuous
 62
     7
100
AcDbLine
 10
67.49999999999996
 20
-382.93637
 30
0.0
 11
67.49999999999996
 21
-352.9363699999999
 31
0.0
  0
LINE
  5
40
330
407
100
AcDbEntity
  8
HIBINO-BASE
  6
Continuous
 62
     7
100
AcDbLine
 10
142.4999999999999
 20
-352.9363699999999
 30
0.0
 11
142.4999999999999
 21
-382.93637
 31
0.0
  0
LINE
  5
41
330
407
100
AcDbEntity
  8
HIBINO-BASE
  6
Continuous
 62
     7
100
AcDbLine
 10
217.5000000000001
 20
-352.9363699999999
 30
0.0
 11
217.5000000000001
 21
-382.93637
 31
0.0
  0
LINE
  5
42
330
407
100
AcDbEntity
  8
HIBINO-BASE
  6
Continuous
 62
     7
100
AcDbLine
 10
179.9999999999999
 20
-382.93637
 30
0.0
 11
179.9999999999999
 21
-352.9363699999999
 31
0.0
  0
TEXT
  5
43
330
407
100
AcDbEntity
  8
HIBINO-BASE
 62
     7
100
AcDbText
 10
70.06962000000001
 20
-374.3454299999999
 30
0.0
 40
4.886523437499999
  1
'17.12.
 41
0.7
 11
70.06962000000001
 21
-369.4589065624999
 31
0.0
100
AcDbText
 73
     3
  0
TEXT
  5
44
330
407
100
AcDbEntity
  8
HIBINO-BASE
 62
     7
100
AcDbText
 10
52.50000000000003
 20
-376.8882
 30
0.0
 40
4.886523437499999
  1
3
 41
0.7
 11
52.50000000000003
 21
-372.0016765625
 31
0.0
100
AcDbText
 73
     3
  0
TEXT
  5
45
330
407
100
AcDbEntity
  8
HIBINO-BASE
 62
     7
100
AcDbText
 10
147.0174300331038
 20
-374.3454299999999
 30
0.0
 40
4.886523437499999
  1
N.Sasaki
 41
0.7
 11
147.0174300331038
 21
-369.4589065624999
 31
0.0
100
AcDbText
 73
     3
  0
TEXT
  5
46
330
407
100
AcDbEntity
  8
HIBINO-BASE
 62
     7
100
AcDbText
 10
11.6500000000001
 20
-377.0083699999999
 30
0.0
 40
9.773046874999998
  1
A4
 41
0.7
 11
11.6500000000001
 21
-367.2353231249999
 31
0.0
100
AcDbText
 73
     3
  0
TEXT
  5
47
330
407
100
AcDbEntity
  8
HIBINO-BASE
 62
     7
100
AcDbText
 10
2.874999999999985
 20
-360.794735
 30
0.0
 40
4.886523437499999
  1
PAPER SIZE
 41
0.7
 11
2.874999999999985
 21
-355.9082115625
 31
0.0
100
AcDbText
 73
     3
  0
TEXT
  5
48
330
407
100
AcDbEntity
  8
HIBINO-BASE
 62
     7
100
AcDbText
 10
-248.4479999999999
 20
-402.1624033999999
 30
0.0
 40
10.8001325390625
  1
Hibino Corporation
 41
0.7
 11
-248.4479999999999
 21
-391.3622708609375
 31
0.0
100
AcDbText
 73
     3
  0
TEXT
  5
49
330
407
100
AcDbEntity
  8
HIBINO-BASE
 62
     7
100
AcDbText
 10
150.20517
 20
-402.1624033999999
 30
0.0
 40
10.8001325390625
  1
ヒビノ株式会社
 41
0.7
 11
150.20517
 21
-391.3622708609375
 31
0.0
100
AcDbText
 73
     3
  0
LINE
  5
4A
330
407
100
AcDbEntity
  8
SPEC
  6
Continuous
 62
     7
100
AcDbLine
 10
-247.4999999999999
 20
367.0636300000001
 30
0.0
 11
195.0000000000001
 21
367.0636300000001
 31
0.0
  0
LINE
  5
4B
330
407
100
AcDbEntity
  8
SPEC
  6
Continuous
 62
     7
100
AcDbLine
 10
-247.4999999999999
 20
355.8136300000001
 30
0.0
 11
195.0000000000001
 21
355.8136300000001
 31
0.0
  0
LINE
  5
4C
330
407
100
AcDbEntity
  8
SPEC
  6
Continuous
 62
     7
100
AcDbLine
 10
-247.4999999999999
 20
367.0636300000001
 30
0.0
 11
-247.4999999999999
 21
209.5636300000001
 31
0.0
  0
TEXT
  5
4D
330
407
100
AcDbEntity
  8
SPEC
 62
     7
100
AcDbText
 10
-243.7499999999999
 20
371.24344
 30
0.0
 40
7.329785156249999
  1
仕様
 41
0.7
 11
-243.7499999999999
 21
378.57322515625
 31
0.0
100
AcDbText
 73
     3
  0
LINE
  5
4E
330
407
100
AcDbEntity
  8
SPEC
  6
Continuous
 62
     7
100
AcDbLine
 10
-149.9999999999999
 20
367.0636300000001
 30
0.0
 11
-149.9999999999999
 21
209.5636300000001
 31
0.0
  0
LINE
  5
4F
330
407
100
AcDbEntity
  8
SPEC
  6
Continuous
 62
     7
100
AcDbLine
 10
195.0000000000001
 20
367.0636300000001
 30
0.0
 11
195.0000000000001
 21
209.5636300000001
 31
0.0
  0
TEXT
  5
50
330
407
100
AcDbEntity
  8
SPEC
 62
     7
100
AcDbText
 10
-244.8
 20
234.4273833333333
 30
0.0
 40
5.700944010416667
  1
寸法(W×H×D)
 41
0.7
 11
-244.8
 21
240.12832734375
 31
0.0
100
AcDbText
 73
     3
  0
TEXT
  5
51
330
407
100
AcDbEntity
  8
SPEC
 62
     7
100
AcDbText
 10
-244.8
 20
223.1773833333333
 30
0.0
 40
5.700944010416667
  1
質量
 41
0.7
 11
-244.8
 21
228.87832734375
 31
0.0
100
AcDbText
 73
     3
  0
TEXT
  5
52
330
407
100
AcDbEntity
  8
SPEC
 62
     7
100
AcDbText
 10
-147.2999999999999
 20
234.4273833333333
 30
0.0
 40
5.700944010416665
  1
64×25×89mm(除突起部)
 41
0.7
 11
-147.2999999999999
 21
240.12832734375
 31
0.0
100
AcDbText
 73
     3
  0
TEXT
  5
53
330
407
100
AcDbEntity
  8
SPEC
 62
     7
100
AcDbText
 10
-147.2999999999999
 20
223.1773833333333
 30
0.0
 40
5.700944010416667
  1
99g
 41
0.7
 11
-147.2999999999999
 21
228.87832734375
 31
0.0
100
AcDbText
 73
     3
  0
LINE
  5
54
330
407
100
AcDbEntity
  8
SPEC
  6
Continuous
 62
     7
100
AcDbLine
 10
-247.4999999999999
 20
344.5636300000001
 30
0.0
 11
195.0000000000001
 21
344.5636300000001
 31
0.0
  0
LINE
  5
55
330
407
100
AcDbEntity
  8
SPEC
  6
Continuous
 62
     7
100
AcDbLine
 10
-247.4999999999999
 20
333.3136300000001
 30
0.0
 11
195.0000000000001
 21
333.3136300000001
 31
0.0
  0
LINE
  5
56
330
407
100
AcDbEntity
  8
SPEC
  6
Continuous
 62
     7
100
AcDbLine
 10
-247.4999999999999
 20
322.0636300000001
 30
0.0
 11
195.0000000000001
 21
322.0636300000001
 31
0.0
  0
LINE
  5
57
330
407
100
AcDbEntity
  8
SPEC
  6
Continuous
 62
     7
100
AcDbLine
 10
-247.4999999999999
 20
310.8136300000001
 30
0.0
 11
195.0000000000001
 21
310.8136300000001
 31
0.0
  0
LINE
  5
58
330
407
100
AcDbEntity
  8
SPEC
  6
Continuous
 62
     7
100
AcDbLine
 10
-247.4999999999999
 20
299.5636300000001
 30
0.0
 11
195.0000000000001
 21
299.5636300000001
 31
0.0
  0
LINE
  5
59
330
407
100
AcDbEntity
  8
SPEC
  6
Continuous
 62
     7
100
AcDbLine
 10
-247.4999999999999
 20
288.3136300000001
 30
0.0
 11
195.0000000000001
 21
288.3136300000001
 31
0.0
  0
LINE
  5
5A
330
407
100
AcDbEntity
  8
SPEC
  6
Continuous
 62
     7
100
AcDbLine
 10
-247.4999999999999
 20
265.8136300000001
 30
0.0
 11
195.0000000000001
 21
265.8136300000001
 31
0.0
  0
LINE
  5
5B
330
407
100
AcDbEntity
  8
SPEC
  6
Continuous
 62
     7
100
AcDbLine
 10
-247.4999999999999
 20
243.3136300000001
 30
0.0
 11
195.0000000000001
 21
243.3136300000001
 31
0.0
  0
LINE
  5
5C
330
407
100
AcDbEntity
  8
SPEC
  6
Continuous
 62
     7
100
AcDbLine
 10
-247.4999999999999
 20
232.06363
 30
0.0
 11
195.0000000000001
 21
232.06363
 31
0.0
  0
LINE
  5
5D
330
407
100
AcDbEntity
  8
SPEC
  6
Continuous
 62
     7
100
AcDbLine
 10
-247.4999999999999
 20
220.81363
 30
0.0
 11
195.0000000000001
 21
220.81363
 31
0.0
  0
TEXT
  5
5E
330
407
100
AcDbEntity
  8
SPEC
 62
     7
100
AcDbText
 10
-244.7999999999999
 20
358.1773833333333
 30
0.0
 40
5.700944010416665
  1
形式
 41
0.7
 11
-244.7999999999999
 21
363.87832734375
 31
0.0
100
AcDbText
 73
     3
  0
TEXT
  5
5F
330
407
100
AcDbEntity
  8
SPEC
 62
     7
100
AcDbText
 10
-244.7999999999999
 20
346.9273833333334
 30
0.0
 40
5.700944010416665
  1
指向特性
 41
0.7
 11
-244.7999999999999
 21
352.62832734375
 31
0.0
100
AcDbText
 73
     3
  0
TEXT
  5
60
330
407
100
AcDbEntity
  8
SPEC
 62
     7
100
AcDbText
 10
-244.7999999999999
 20
335.6773833333333
 30
0.0
 40
5.700944010416665
  1
周波数特性
 41
0.7
 11
-244.7999999999999
 21
341.37832734375
 31
0.0
100
AcDbText
 73
     3
  0
TEXT
  5
61
330
407
100
AcDbEntity
  8
SPEC
 62
     7
100
AcDbText
 10
-244.7999999999999
 20
324.4273833333334
 30
0.0
 40
5.700944010416665
  1
開回路感度
 41
0.7
 11
-244.7999999999999
 21
330.12832734375
 31
0.0
100
AcDbText
 73
     3
  0
TEXT
  5
62
330
407
100
AcDbEntity
  8
SPEC
 62
     7
100
AcDbText
 10
-244.7999999999999
 20
313.1773833333334
 30
0.0
 40
5.700944010416665
  1
最大音圧レベル
 41
0.7
 11
-244.7999999999999
 21
318.87832734375
 31
0.0
100
AcDbText
 73
     3
  0
TEXT
  5
63
330
407
100
AcDbEntity
  8
SPEC
 62
     7
100
AcDbText
 10
-244.7999999999999
 20
301.9273833333333
 30
0.0
 40
5.700944010416665
  1
等価雑音レベル
 41
0.7
 11
-244.7999999999999
 21
307.62832734375
 31
0.0
100
AcDbText
 73
     3
  0
TEXT
  5
64
330
407
100
AcDbEntity
  8
SPEC
 62
     7
100
AcDbText
 10
-244.7999999999999
 20
290.6773833333334
 30
0.0
 40
5.700944010416665
  1
インピーダンス
 41
0.7
 11
-244.7999999999999
 21
296.37832734375
 31
0.0
100
AcDbText
 73
     3
  0
TEXT
  5
65
330
407
100
AcDbEntity
  8
SPEC
 62
     7
100
AcDbText
 10
-244.7999999999999
 20
279.4273833333333
 30
0.0
 40
5.700944010416665
  1
電源
 41
0.7
 11
-244.7999999999999
 21
285.12832734375
 31
0.0
100
AcDbText
 73
     3
  0
TEXT
  5
66
330
407
100
AcDbEntity
  8
SPEC
 62
     7
100
AcDbText
 10
-244.8
 20
256.9273833333334
 30
0.0
 40
5.700944010416665
  1
端子
 41
0.7
 11
-244.8
 21
262.6283273437501
 31
0.0
100
AcDbText
 73
     3
  0
TEXT
  5
67
330
407
100
AcDbEntity
  8
SPEC
 62
     7
100
AcDbText
 10
-147.2999999999999
 20
358.1773833333333
 30
0.0
 40
5.700944010416665
  1
コンデンサー型 
 41
0.7
 11
-147.2999999999999
 21
363.87832734375
 31
0.0
100
AcDbText
 73
     3
  0
TEXT
  5
68
330
407
100
AcDbEntity
  8
SPEC
 62
     7
100
AcDbText
 10
-147.2999999999999
 20
346.9273833333334
 30
0.0
 40
5.700944010416665
  1
ハーフ・カーディオイド
 41
0.7
 11
-147.2999999999999
 21
352.62832734375
 31
0.0
100
AcDbText
 73
     3
  0
TEXT
  5
69
330
407
100
AcDbEntity
  8
SPEC
 62
     7
100
AcDbText
 10
-147.2999999999999
 20
335.6773833333333
 30
0.0
 40
5.700944010416665
  1
50Hz～20kHz
 41
0.7
 11
-147.2999999999999
 21
341.37832734375
 31
0.0
100
AcDbText
 73
     3
  0
TEXT
  5
6A
330
407
100
AcDbEntity
  8
SPEC
 62
     7
100
AcDbText
 10
-149.9999999999999
 20
324.4273833333334
 30
0.0
 40
5.700944010416665
  1
-33dB re 1V/Pa
 41
0.7
 11
-149.9999999999999
 21
330.12832734375
 31
0.0
100
AcDbText
 73
     3
  0
TEXT
  5
6B
330
407
100
AcDbEntity
  8
SPEC
 62
     7
100
AcDbText
 10
-147.2999999999999
 20
313.1773833333334
 30
0.0
 40
5.700944010416665
  1
120dB SPL(3%%% THD)
 41
0.7
 11
-147.2999999999999
 21
318.87832734375
 31
0.0
100
AcDbText
 73
     3
  0
TEXT
  5
6C
330
407
100
AcDbEntity
  8
SPEC
 62
     7
100
AcDbText
 10
-147.2999999999999
 20
301.9273833333333
 30
0.0
 40
5.700944010416665
  1
22dB SPL(Aウェイト)
 41
0.7
 11
-147.2999999999999
 21
307.62832734375
 31
0.0
100
AcDbText
 73
     3
  0
TEXT
  5
6D
330
407
100
AcDbEntity
  8
SPEC
 62
     7
100
AcDbText
 10
-147.2999999999999
 20
290.6773833333334
 30
0.0
 40
5.700944010416665
  1
150Ω
 41
0.7
 11
-147.2999999999999
 21
296.37832734375
 31
0.0
100
AcDbText
 73
     3
  0
TEXT
  5
6E
330
407
100
AcDbEntity
  8
SPEC
 62
     7
100
AcDbText
 10
-147.2999999999999
 20
279.4273833333333
 30
0.0
 40
5.700944010416665
  1
PCC130:ファンタ ム 12V～48V/4mA
 41
0.7
 11
-147.2999999999999
 21
285.12832734375
 31
0.0
100
AcDbText
 73
     3
  0
TEXT
  5
6F
330
407
100
AcDbEntity
  8
SPEC
 62
     7
100
AcDbText
 10
-147.2999999999999
 20
256.9273833333334
 30
0.0
 40
5.700944010416665
  1
ミニXLR(3P)
 41
0.7
 11
-147.2999999999999
 21
262.6283273437501
 31
0.0
100
AcDbText
 73
     3
  0
TEXT
  5
70
330
407
100
AcDbEntity
  8
SPEC
 62
     7
100
AcDbText
 10
-147.2999999999999
 20
268.1773833333334
 30
0.0
 40
5.700944010416665
  1
PCC130 SW:ファンタム 12V～48V/6mA
 41
0.7
 11
-147.2999999999999
 21
273.87832734375
 31
0.0
100
AcDbText
 73
     3
  0
TEXT
  5
71
330
407
100
AcDbEntity
  8
SPEC
 62
     7
100
AcDbText
 10
-147.2999999999999
 20
245.6773833333333
 30
0.0
 40
5.700944010416665
  1
(オプションでステレオフォーンプラグに変更可能)
 41
0.7
 11
-147.2999999999999
 21
251.37832734375
 31
0.0
100
AcDbText
 73
     3
  0
TEXT
  5
72
330
407
100
AcDbEntity
  8
SPEC
 62
     7
100
AcDbText
 10
-147.2999999999999
 20
211.9273833333333
 30
0.0
 40
5.700944010416665
  1
接続ケーブル(ミニXLR(3P)→XLR(3P)、約4.5m)
 41
0.7
 11
-147.2999999999999
 21
217.62832734375
 31
0.0
100
AcDbText
 73
     3
  0
TEXT
  5
73
330
407
100
AcDbEntity
  8
SPEC
 62
     7
100
AcDbText
 10
-244.8
 20
211.9273833333333
 30
0.0
 40
5.700944010416665
  1
付属品
 41
0.7
 11
-244.8
 21
217.62832734375
 31
0.0
100
AcDbText
 73
     3
  0
LINE
  5
74
330
407
100
AcDbEntity
  8
SPEC
  6
Continuous
 62
     7
100
AcDbLine
 10
-247.4999999999999
 20
209.5636300000001
 30
0.0
 11
195.0000000000001
 21
209.5636300000001
 31
0.0
  0
TEXT
  5
75
330
407
100
AcDbEntity
  8
DIMNSIONS
 62
     7
100
AcDbText
 10
-59.99999999999998
 20
-346.1278999999999
 30
0.0
 40
7.329785156249999
  1
(単位：mm)
 41
0.7
 11
-59.99999999999998
 21
-338.7981148437499
 31
0.0
100
AcDbText
 73
     3
  0
LINE
  5
76
330
407
100
AcDbEntity
  8
DIMNSIONS
  6
Continuous
 62
     7
100
AcDbLine
 10
-203.25
 20
63.64599999999898
 30
0.0
 11
-221.75
 21
63.64599999999898
 31
0.0
  0
LINE
  5
77
330
407
100
AcDbEntity
  8
DIMNSIONS
  6
Continuous
 62
     7
100
AcDbLine
 10
-194.1929321881345
 20
-25.00000000000005
 30
0.0
 11
-221.75
 21
-25.00000000000005
 31
0.0
  0
LINE
  5
78
330
407
100
AcDbEntity
  8
DIMNSIONS
  6
Continuous
 62
     7
100
AcDbLine
 10
-218.75
 20
63.64599999999898
 30
0.0
 11
-218.75
 21
-25.00000000000005
 31
0.0
  0
LINE
  5
79
330
407
100
AcDbEntity
  8
DIMNSIONS
  6
Continuous
 62
     7
100
AcDbLine
 10
-218.75
 20
63.64599999999898
 30
0.0
 11
-217.1424029713382
 21
57.64636621093649
 31
0.0
  0
LINE
  5
7A
330
407
100
AcDbEntity
  8
DIMNSIONS
  6
Continuous
 62
     7
100
AcDbLine
 10
-218.75
 20
63.64599999999898
 30
0.0
 11
-220.3575970286618
 21
57.64636621093649
 31
0.0
  0
LINE
  5
7B
330
407
100
AcDbEntity
  8
DIMNSIONS
  6
Continuous
 62
     7
100
AcDbLine
 10
-218.75
 20
-25.00000000000005
 30
0.0
 11
-220.3575970286618
 21
-19.00036621093756
 31
0.0
  0
LINE
  5
7C
330
407
100
AcDbEntity
  8
DIMNSIONS
  6
Continuous
 62
     7
100
AcDbLine
 10
-218.75
 20
-25.00000000000005
 30
0.0
 11
-217.1424029713382
 21
-19.00036621093756
 31
0.0
  0
TEXT
  5
7D
330
407
100
AcDbEntity
  8
DIMNSIONS
 62
     7
100
AcDbText
 10
-221.7316666666667
 20
8.73966666666613
 30
0.0
 40
8.144205729166666
  1
88.6
 50
90.0
 41
0.7
 11
-229.8758723958333
 21
8.739666666666131
 31
0.0
100
AcDbText
 73
     3
  0
LINE
  5
7E
330
407
100
AcDbEntity
  8
DIMNSIONS
  6
Continuous
 62
     7
100
AcDbLine
 10
-206.75
 20
-12.44293218813448
 30
0.0
 11
-206.75
 21
-46.74999999999992
 31
0.0
  0
LINE
  5
7F
330
407
100
AcDbEntity
  8
DIMNSIONS
  6
Continuous
 62
     7
100
AcDbLine
 10
-143.2499999999999
 20
-12.44293218813448
 30
0.0
 11
-143.2499999999999
 21
-46.74999999999992
 31
0.0
  0
LINE
  5
80
330
407
100
AcDbEntity
  8
DIMNSIONS
  6
Continuous
 62
     7
100
AcDbLine
 10
-206.75
 20
-43.74999999999992
 30
0.0
 11
-143.2499999999999
 21
-43.74999999999992
 31
0.0
  0
LINE
  5
81
330
407
100
AcDbEntity
  8
DIMNSIONS
  6
Continuous
 62
     7
100
AcDbLine
 10
-206.75
 20
-43.74999999999992
 30
0.0
 11
-200.7503662109374
 21
-42.14240297133815
 31
0.0
  0
LINE
  5
82
330
407
100
AcDbEntity
  8
DIMNSIONS
  6
Continuous
 62
     7
100
AcDbLine
 10
-206.75
 20
-43.74999999999992
 30
0.0
 11
-200.7503662109374
 21
-45.3575970286617
 31
0.0
  0
LINE
  5
83
330
407
100
AcDbEntity
  8
DIMNSIONS
  6
Continuous
 62
     7
100
AcDbLine
 10
-143.2499999999999
 20
-43.74999999999992
 30
0.0
 11
-149.2496337890624
 21
-45.3575970286617
 31
0.0
  0
LINE
  5
84
330
407
100
AcDbEntity
  8
DIMNSIONS
  6
Continuous
 62
     7
100
AcDbLine
 10
-143.2499999999999
 20
-43.74999999999992
 30
0.0
 11
-149.2496337890624
 21
-42.14240297133815
 31
0.0
  0
TEXT
  5
85
330
407
100
AcDbEntity
  8
DIMNSIONS
 62
     7
100
AcDbText
 10
-185.5833333333333
 20
-40.76833333333325
 30
0.0
 40
8.144205729166666
  1
63.5
 41
0.7
 11
-185.5833333333333
 21
-32.62412760416659
 31
0.0
100
AcDbText
 73
     3
  0
LINE
  5
86
330
407
100
AcDbEntity
  8
DIMNSIONS
  6
Continuous
 62
     7
100
AcDbLine
 10
-106.7499999999999
 20
68.14599999999898
 30
0.0
 11
-106.7499999999999
 21
79.5625
 31
0.0
  0
LINE
  5
87
330
407
100
AcDbEntity
  8
DIMNSIONS
  6
Continuous
 62
     7
100
AcDbLine
 10
-131.8451999999999
 20
66.14599999999898
 30
0.0
 11
-131.8451999999999
 21
79.5625
 31
0.0
  0
LINE
  5
88
330
407
100
AcDbEntity
  8
DIMNSIONS
  6
Continuous
 62
     7
100
AcDbLine
 10
-106.7499999999999
 20
76.5625
 30
0.0
 11
-131.8451999999999
 21
76.5625
 31
0.0
  0
LINE
  5
89
330
407
100
AcDbEntity
  8
DIMNSIONS
  6
Continuous
 62
     7
100
AcDbLine
 10
-106.7499999999999
 20
76.5625
 30
0.0
 11
-112.7496337890624
 21
74.95490297133823
 31
0.0
  0
LINE
  5
8A
330
407
100
AcDbEntity
  8
DIMNSIONS
  6
Continuous
 62
     7
100
AcDbLine
 10
-106.7499999999999
 20
76.5625
 30
0.0
 11
-112.7496337890624
 21
78.17009702866179
 31
0.0
  0
LINE
  5
8B
330
407
100
AcDbEntity
  8
DIMNSIONS
  6
Continuous
 62
     7
100
AcDbLine
 10
-131.8451999999999
 20
76.5625
 30
0.0
 11
-125.8455662109374
 21
78.17009702866179
 31
0.0
  0
LINE
  5
8C
330
407
100
AcDbEntity
  8
DIMNSIONS
  6
Continuous
 62
     7
100
AcDbLine
 10
-131.8451999999999
 20
76.5625
 30
0.0
 11
-125.8455662109374
 21
74.95490297133823
 31
0.0
  0
TEXT
  5
8D
330
407
100
AcDbEntity
  8
DIMNSIONS
 62
     7
100
AcDbText
 10
-129.8809333333333
 20
79.54416666666666
 30
0.0
 40
8.144205729166666
  1
25.1
 41
0.7
 11
-129.8809333333333
 21
87.68837239583332
 31
0.0
100
AcDbText
 73
     3
  0
LINE
  5
8E
330
407
100
AcDbEntity
  8
DIMNSIONS
  6
Continuous
 62
     7
100
AcDbLine
 10
-54.50000000000002
 20
51.3777999999957
 30
0.0
 11
-90.50000000000007
 21
51.3777999999957
 31
0.0
  0
LINE
  5
8F
330
407
100
AcDbEntity
  8
DIMNSIONS
  6
Continuous
 62
     7
100
AcDbLine
 10
-78.25000000000001
 20
63.64599999999569
 30
0.0
 11
-90.50000000000007
 21
63.64599999999569
 31
0.0
  0
LINE
  5
90
330
407
100
AcDbEntity
  8
DIMNSIONS
  6
Continuous
 62
     7
100
AcDbLine
 10
-87.50000000000005
 20
63.64599999999569
 30
0.0
 11
-87.50000000000005
 21
51.3777999999957
 31
0.0
  0
LINE
  5
91
330
407
100
AcDbEntity
  8
DIMNSIONS
  6
Continuous
 62
     7
100
AcDbLine
 10
-87.50000000000005
 20
51.3777999999957
 30
0.0
 11
-87.50000000000005
 21
40.8777999999957
 31
0.0
  0
LINE
  5
92
330
407
100
AcDbEntity
  8
DIMNSIONS
  6
Continuous
 62
     7
100
AcDbLine
 10
-87.50000000000005
 20
51.3777999999957
 30
0.0
 11
-85.8924029713383
 21
45.37816621093321
 31
0.0
  0
LINE
  5
93
330
407
100
AcDbEntity
  8
DIMNSIONS
  6
Continuous
 62
     7
100
AcDbLine
 10
-87.50000000000005
 20
51.3777999999957
 30
0.0
 11
-89.10759702866185
 21
45.37816621093321
 31
0.0
  0
LINE
  5
94
330
407
100
AcDbEntity
  8
DIMNSIONS
  6
Continuous
 62
     7
100
AcDbLine
 10
-87.50000000000005
 20
63.64599999999569
 30
0.0
 11
-87.50000000000005
 21
74.1459999999957
 31
0.0
  0
LINE
  5
95
330
407
100
AcDbEntity
  8
DIMNSIONS
  6
Continuous
 62
     7
100
AcDbLine
 10
-87.50000000000005
 20
63.64599999999569
 30
0.0
 11
-89.10759702866185
 21
69.64563378905818
 31
0.0
  0
LINE
  5
96
330
407
100
AcDbEntity
  8
DIMNSIONS
  6
Continuous
 62
     7
100
AcDbLine
 10
-87.50000000000005
 20
63.64599999999569
 30
0.0
 11
-85.8924029713383
 21
69.64563378905818
 31
0.0
  0
TEXT
  5
97
330
407
100
AcDbEntity
  8
DIMNSIONS
 62
     7
100
AcDbText
 10
-91.98166666666672
 20
46.92856666666236
 30
0.0
 40
8.144205729166666
  1
12.3
 50
90.0
 41
0.7
 11
-100.1258723958334
 21
46.92856666666236
 31
0.0
100
AcDbText
 73
     3
  0
LINE
  5
98
330
407
100
AcDbEntity
  8
DIMNSIONS
  6
Continuous
 62
     7
100
AcDbLine
 10
-25.18000000000008
 20
21.45659999999514
 30
0.0
 11
2.999999999999928
 21
21.45659999999514
 31
0.0
  0
LINE
  5
99
330
407
100
AcDbEntity
  8
DIMNSIONS
  6
Continuous
 62
     7
100
AcDbLine
 10
-21.75000000000013
 20
63.64599999999569
 30
0.0
 11
2.999999999999928
 21
63.64599999999569
 31
0.0
  0
LINE
  5
9A
330
407
100
AcDbEntity
  8
DIMNSIONS
  6
Continuous
 62
     7
100
AcDbLine
 10
-0.0000000000000711
 20
21.45659999999514
 30
0.0
 11
-0.0000000000000711
 21
63.64599999999569
 31
0.0
  0
LINE
  5
9B
330
407
100
AcDbEntity
  8
DIMNSIONS
  6
Continuous
 62
     7
100
AcDbLine
 10
-0.0000000000000711
 20
21.45659999999514
 30
0.0
 11
-1.607597028661844
 21
27.45623378905764
 31
0.0
  0
LINE
  5
9C
330
407
100
AcDbEntity
  8
DIMNSIONS
  6
Continuous
 62
     7
100
AcDbLine
 10
-0.0000000000000711
 20
21.45659999999514
 30
0.0
 11
1.607597028661702
 21
27.45623378905764
 31
0.0
  0
LINE
  5
9D
330
407
100
AcDbEntity
  8
DIMNSIONS
  6
Continuous
 62
     7
100
AcDbLine
 10
-0.0000000000000711
 20
63.64599999999569
 30
0.0
 11
1.607597028661702
 21
57.64636621093319
 31
0.0
  0
LINE
  5
9E
330
407
100
AcDbEntity
  8
DIMNSIONS
  6
Continuous
 62
     7
100
AcDbLine
 10
-0.0000000000000711
 20
63.64599999999569
 30
0.0
 11
-1.607597028661844
 21
57.64636621093319
 31
0.0
  0
TEXT
  5
9F
330
407
100
AcDbEntity
  8
DIMNSIONS
 62
     7
100
AcDbText
 10
-2.98166666666674
 20
31.96796666666209
 30
0.0
 40
8.144205729166666
  1
42.2
 50
90.0
 41
0.7
 11
-11.1258723958334
 21
31.96796666666209
 31
0.0
100
AcDbText
 73
     3
  0
LINE
  5
A0
330
407
100
AcDbEntity
  8
DIMNSIONS
  6
Continuous
 62
     7
100
AcDbLine
 10
-70.31999999999995
 20
13.45659999999514
 30
0.0
 11
-70.31999999999995
 21
-46.75000000000003
 31
0.0
  0
LINE
  5
A1
330
407
100
AcDbEntity
  8
DIMNSIONS
  6
Continuous
 62
     7
100
AcDbLine
 10
-29.68000000000008
 20
13.45659999999514
 30
0.0
 11
-29.68000000000008
 21
-46.75000000000003
 31
0.0
  0
LINE
  5
A2
330
407
100
AcDbEntity
  8
DIMNSIONS
  6
Continuous
 62
     7
100
AcDbLine
 10
-70.31999999999995
 20
-43.75000000000003
 30
0.0
 11
-29.68000000000008
 21
-43.75000000000003
 31
0.0
  0
LINE
  5
A3
330
407
100
AcDbEntity
  8
DIMNSIONS
  6
Continuous
 62
     7
100
AcDbLine
 10
-70.31999999999995
 20
-43.75000000000003
 30
0.0
 11
-64.32036621093745
 21
-42.14240297133826
 31
0.0
  0
LINE
  5
A4
330
407
100
AcDbEntity
  8
DIMNSIONS
  6
Continuous
 62
     7
100
AcDbLine
 10
-70.31999999999995
 20
-43.75000000000003
 30
0.0
 11
-64.32036621093745
 21
-45.35759702866181
 31
0.0
  0
LINE
  5
A5
330
407
100
AcDbEntity
  8
DIMNSIONS
  6
Continuous
 62
     7
100
AcDbLine
 10
-29.68000000000008
 20
-43.75000000000003
 30
0.0
 11
-35.67963378906258
 21
-45.35759702866181
 31
0.0
  0
LINE
  5
A6
330
407
100
AcDbEntity
  8
DIMNSIONS
  6
Continuous
 62
     7
100
AcDbLine
 10
-29.68000000000008
 20
-43.75000000000003
 30
0.0
 11
-35.67963378906258
 21
-42.14240297133826
 31
0.0
  0
TEXT
  5
A7
330
407
100
AcDbEntity
  8
DIMNSIONS
 62
     7
100
AcDbText
 10
-60.58333333333334
 20
-40.76833333333336
 30
0.0
 40
8.144205729166666
  1
40.6
 41
0.7
 11
-60.58333333333334
 21
-32.6241276041667
 31
0.0
100
AcDbText
 73
     3
  0
LINE
  5
A8
330
407
100
AcDbEntity
  8
DIMNSIONS
  6
Continuous
 62
     7
100
AcDbLine
 10
-203.25
 20
-186.3540000000011
 30
0.0
 11
-221.75
 21
-186.3540000000011
 31
0.0
  0
LINE
  5
A9
330
407
100
AcDbEntity
  8
DIMNSIONS
  6
Continuous
 62
     7
100
AcDbLine
 10
-194.1929321881345
 20
-275.0
 30
0.0
 11
-221.75
 21
-275.0
 31
0.0
  0
LINE
  5
AA
330
407
100
AcDbEntity
  8
DIMNSIONS
  6
Continuous
 62
     7
100
AcDbLine
 10
-218.75
 20
-186.3540000000011
 30
0.0
 11
-218.75
 21
-275.0
 31
0.0
  0
LINE
  5
AB
330
407
100
AcDbEntity
  8
DIMNSIONS
  6
Continuous
 62
     7
100
AcDbLine
 10
-218.75
 20
-186.3540000000011
 30
0.0
 11
-217.1424029713382
 21
-192.3536337890636
 31
0.0
  0
LINE
  5
AC
330
407
100
AcDbEntity
  8
DIMNSIONS
  6
Continuous
 62
     7
100
AcDbLine
 10
-218.75
 20
-186.3540000000011
 30
0.0
 11
-220.3575970286618
 21
-192.3536337890636
 31
0.0
  0
LINE
  5
AD
330
407
100
AcDbEntity
  8
DIMNSIONS
  6
Continuous
 62
     7
100
AcDbLine
 10
-218.75
 20
-275.0
 30
0.0
 11
-220.3575970286618
 21
-269.0003662109375
 31
0.0
  0
LINE
  5
AE
330
407
100
AcDbEntity
  8
DIMNSIONS
  6
Continuous
 62
     7
100
AcDbLine
 10
-218.75
 20
-275.0
 30
0.0
 11
-217.1424029713382
 21
-269.0003662109375
 31
0.0
  0
TEXT
  5
AF
330
407
100
AcDbEntity
  8
DIMNSIONS
 62
     7
100
AcDbText
 10
-221.7316666666667
 20
-241.2603333333338
 30
0.0
 40
8.144205729166666
  1
88.6
 50
90.0
 41
0.7
 11
-229.8758723958333
 21
-241.2603333333338
 31
0.0
100
AcDbText
 73
     3
  0
LINE
  5
B0
330
407
100
AcDbEntity
  8
DIMNSIONS
  6
Continuous
 62
     7
100
AcDbLine
 10
-206.75
 20
-262.4429321881345
 30
0.0
 11
-206.75
 21
-296.75
 31
0.0
  0
LINE
  5
B1
330
407
100
AcDbEntity
  8
DIMNSIONS
  6
Continuous
 62
     7
100
AcDbLine
 10
-143.2499999999999
 20
-262.4429321881345
 30
0.0
 11
-143.2499999999999
 21
-296.75
 31
0.0
  0
LINE
  5
B2
330
407
100
AcDbEntity
  8
DIMNSIONS
  6
Continuous
 62
     7
100
AcDbLine
 10
-206.75
 20
-293.75
 30
0.0
 11
-143.2499999999999
 21
-293.75
 31
0.0
  0
LINE
  5
B3
330
407
100
AcDbEntity
  8
DIMNSIONS
  6
Continuous
 62
     7
100
AcDbLine
 10
-206.75
 20
-293.75
 30
0.0
 11
-200.7503662109374
 21
-292.1424029713382
 31
0.0
  0
LINE
  5
B4
330
407
100
AcDbEntity
  8
DIMNSIONS
  6
Continuous
 62
     7
100
AcDbLine
 10
-206.75
 20
-293.75
 30
0.0
 11
-200.7503662109374
 21
-295.3575970286618
 31
0.0
  0
LINE
  5
B5
330
407
100
AcDbEntity
  8
DIMNSIONS
  6
Continuous
 62
     7
100
AcDbLine
 10
-143.2499999999999
 20
-293.75
 30
0.0
 11
-149.2496337890624
 21
-295.3575970286618
 31
0.0
  0
LINE
  5
B6
330
407
100
AcDbEntity
  8
DIMNSIONS
  6
Continuous
 62
     7
100
AcDbLine
 10
-143.2499999999999
 20
-293.75
 30
0.0
 11
-149.2496337890624
 21
-292.1424029713382
 31
0.0
  0
TEXT
  5
B7
330
407
100
AcDbEntity
  8
DIMNSIONS
 62
     7
100
AcDbText
 10
-185.5833333333333
 20
-290.7683333333334
 30
0.0
 40
8.144205729166666
  1
63.5
 41
0.7
 11
-185.5833333333333
 21
-282.6241276041667
 31
0.0
100
AcDbText
 73
     3
  0
LINE
  5
B8
330
407
100
AcDbEntity
  8
DIMNSIONS
  6
Continuous
 62
     7
100
AcDbLine
 10
-131.8451999999999
 20
-183.8540000000011
 30
0.0
 11
-131.8451999999999
 21
-170.4375
 31
0.0
  0
LINE
  5
B9
330
407
100
AcDbEntity
  8
DIMNSIONS
  6
Continuous
 62
     7
100
AcDbLine
 10
-106.7499999999999
 20
-181.8540000000011
 30
0.0
 11
-106.7499999999999
 21
-170.4375
 31
0.0
  0
LINE
  5
BA
330
407
100
AcDbEntity
  8
DIMNSIONS
  6
Continuous
 62
     7
100
AcDbLine
 10
-131.8451999999999
 20
-173.4375
 30
0.0
 11
-106.7499999999999
 21
-173.4375
 31
0.0
  0
LINE
  5
BB
330
407
100
AcDbEntity
  8
DIMNSIONS
  6
Continuous
 62
     7
100
AcDbLine
 10
-131.8451999999999
 20
-173.4375
 30
0.0
 11
-125.8455662109374
 21
-171.8299029713382
 31
0.0
  0
LINE
  5
BC
330
407
100
AcDbEntity
  8
DIMNSIONS
  6
Continuous
 62
     7
100
AcDbLine
 10
-131.8451999999999
 20
-173.4375
 30
0.0
 11
-125.8455662109374
 21
-175.0450970286618
 31
0.0
  0
LINE
  5
BD
330
407
100
AcDbEntity
  8
DIMNSIONS
  6
Continuous
 62
     7
100
AcDbLine
 10
-106.7499999999999
 20
-173.4375
 30
0.0
 11
-112.7496337890624
 21
-175.0450970286618
 31
0.0
  0
LINE
  5
BE
330
407
100
AcDbEntity
  8
DIMNSIONS
  6
Continuous
 62
     7
100
AcDbLine
 10
-106.7499999999999
 20
-173.4375
 30
0.0
 11
-112.7496337890624
 21
-171.8299029713382
 31
0.0
  0
TEXT
  5
BF
330
407
100
AcDbEntity
  8
DIMNSIONS
 62
     7
100
AcDbText
 10
-129.8809333333333
 20
-170.4558333333333
 30
0.0
 40
8.144205729166666
  1
25.1
 41
0.7
 11
-129.8809333333333
 21
-162.3116276041666
 31
0.0
100
AcDbText
 73
     3
  0
LINE
  5
C0
330
407
100
AcDbEntity
  8
DIMNSIONS
  6
Continuous
 62
     7
100
AcDbLine
 10
-54.50000000000002
 20
-198.6222000000042
 30
0.0
 11
-90.50000000000007
 21
-198.6222000000042
 31
0.0
  0
LINE
  5
C1
330
407
100
AcDbEntity
  8
DIMNSIONS
  6
Continuous
 62
     7
100
AcDbLine
 10
-78.25000000000001
 20
-186.3540000000044
 30
0.0
 11
-90.50000000000007
 21
-186.3540000000044
 31
0.0
  0
LINE
  5
C2
330
407
100
AcDbEntity
  8
DIMNSIONS
  6
Continuous
 62
     7
100
AcDbLine
 10
-87.50000000000005
 20
-186.3540000000044
 30
0.0
 11
-87.50000000000005
 21
-198.6222000000042
 31
0.0
  0
LINE
  5
C3
330
407
100
AcDbEntity
  8
DIMNSIONS
  6
Continuous
 62
     7
100
AcDbLine
 10
-87.50000000000005
 20
-198.6222000000042
 30
0.0
 11
-87.50000000000005
 21
-209.1222000000042
 31
0.0
  0
LINE
  5
C4
330
407
100
AcDbEntity
  8
DIMNSIONS
  6
Continuous
 62
     7
100
AcDbLine
 10
-87.50000000000005
 20
-198.6222000000042
 30
0.0
 11
-85.8924029713383
 21
-204.6218337890668
 31
0.0
  0
LINE
  5
C5
330
407
100
AcDbEntity
  8
DIMNSIONS
  6
Continuous
 62
     7
100
AcDbLine
 10
-87.50000000000005
 20
-198.6222000000042
 30
0.0
 11
-89.10759702866185
 21
-204.6218337890668
 31
0.0
  0
LINE
  5
C6
330
407
100
AcDbEntity
  8
DIMNSIONS
  6
Continuous
 62
     7
100
AcDbLine
 10
-87.50000000000005
 20
-186.3540000000044
 30
0.0
 11
-87.50000000000005
 21
-175.8540000000044
 31
0.0
  0
LINE
  5
C7
330
407
100
AcDbEntity
  8
DIMNSIONS
  6
Continuous
 62
     7
100
AcDbLine
 10
-87.50000000000005
 20
-186.3540000000044
 30
0.0
 11
-89.10759702866185
 21
-180.354366210942
 31
0.0
  0
LINE
  5
C8
330
407
100
AcDbEntity
  8
DIMNSIONS
  6
Continuous
 62
     7
100
AcDbLine
 10
-87.50000000000005
 20
-186.3540000000044
 30
0.0
 11
-85.8924029713383
 21
-180.354366210942
 31
0.0
  0
TEXT
  5
C9
330
407
100
AcDbEntity
  8
DIMNSIONS
 62
     7
100
AcDbText
 10
-91.98166666666672
 20
-203.0714333333377
 30
0.0
 40
8.144205729166666
  1
12.3
 50
90.0
 41
0.7
 11
-100.1258723958334
 21
-203.0714333333377
 31
0.0
100
AcDbText
 73
     3
  0
LINE
  5
CA
330
407
100
AcDbEntity
  8
DIMNSIONS
  6
Continuous
 62
     7
100
AcDbLine
 10
-21.75000000000013
 20
-186.3540000000044
 30
0.0
 11
2.999999999999928
 21
-186.3540000000044
 31
0.0
  0
LINE
  5
CB
330
407
100
AcDbEntity
  8
DIMNSIONS
  6
Continuous
 62
     7
100
AcDbLine
 10
-25.18000000000008
 20
-228.5434000000048
 30
0.0
 11
2.999999999999928
 21
-228.5434000000048
 31
0.0
  0
LINE
  5
CC
330
407
100
AcDbEntity
  8
DIMNSIONS
  6
Continuous
 62
     7
100
AcDbLine
 10
-0.0000000000000711
 20
-186.3540000000044
 30
0.0
 11
-0.0000000000000711
 21
-228.5434000000048
 31
0.0
  0
LINE
  5
CD
330
407
100
AcDbEntity
  8
DIMNSIONS
  6
Continuous
 62
     7
100
AcDbLine
 10
-0.0000000000000711
 20
-186.3540000000044
 30
0.0
 11
1.607597028661702
 21
-192.3536337890669
 31
0.0
  0
LINE
  5
CE
330
407
100
AcDbEntity
  8
DIMNSIONS
  6
Continuous
 62
     7
100
AcDbLine
 10
-0.0000000000000711
 20
-186.3540000000044
 30
0.0
 11
-1.607597028661844
 21
-192.3536337890669
 31
0.0
  0
LINE
  5
CF
330
407
100
AcDbEntity
  8
DIMNSIONS
  6
Continuous
 62
     7
100
AcDbLine
 10
-0.0000000000000711
 20
-228.5434000000048
 30
0.0
 11
-1.607597028661844
 21
-222.5437662109423
 31
0.0
  0
LINE
  5
D0
330
407
100
AcDbEntity
  8
DIMNSIONS
  6
Continuous
 62
     7
100
AcDbLine
 10
-0.0000000000000711
 20
-228.5434000000048
 30
0.0
 11
1.607597028661702
 21
-222.5437662109423
 31
0.0
  0
TEXT
  5
D1
330
407
100
AcDbEntity
  8
DIMNSIONS
 62
     7
100
AcDbText
 10
-2.98166666666674
 20
-218.032033333338
 30
0.0
 40
8.144205729166666
  1
42.2
 50
90.0
 41
0.7
 11
-11.1258723958334
 21
-218.032033333338
 31
0.0
100
AcDbText
 73
     3
  0
LINE
  5
D2
330
407
100
AcDbEntity
  8
DIMNSIONS
  6
Continuous
 62
     7
100
AcDbLine
 10
-29.68000000000008
 20
-236.5434000000048
 30
0.0
 11
-29.68000000000008
 21
-296.7500000000001
 31
0.0
  0
LINE
  5
D3
330
407
100
AcDbEntity
  8
DIMNSIONS
  6
Continuous
 62
     7
100
AcDbLine
 10
-70.31999999999995
 20
-236.5434000000048
 30
0.0
 11
-70.31999999999995
 21
-296.7500000000001
 31
0.0
  0
LINE
  5
D4
330
407
100
AcDbEntity
  8
DIMNSIONS
  6
Continuous
 62
     7
100
AcDbLine
 10
-29.68000000000008
 20
-293.75
 30
0.0
 11
-70.31999999999995
 21
-293.75
 31
0.0
  0
LINE
  5
D5
330
407
100
AcDbEntity
  8
DIMNSIONS
  6
Continuous
 62
     7
100
AcDbLine
 10
-29.68000000000008
 20
-293.75
 30
0.0
 11
-35.67963378906258
 21
-295.3575970286619
 31
0.0
  0
LINE
  5
D6
330
407
100
AcDbEntity
  8
DIMNSIONS
  6
Continuous
 62
     7
100
AcDbLine
 10
-29.68000000000008
 20
-293.75
 30
0.0
 11
-35.67963378906258
 21
-292.1424029713384
 31
0.0
  0
LINE
  5
D7
330
407
100
AcDbEntity
  8
DIMNSIONS
  6
Continuous
 62
     7
100
AcDbLine
 10
-70.31999999999995
 20
-293.75
 30
0.0
 11
-64.32036621093745
 21
-292.1424029713384
 31
0.0
  0
LINE
  5
D8
330
407
100
AcDbEntity
  8
DIMNSIONS
  6
Continuous
 62
     7
100
AcDbLine
 10
-70.31999999999995
 20
-293.75
 30
0.0
 11
-64.32036621093745
 21
-295.3575970286619
 31
0.0
  0
TEXT
  5
D9
330
407
100
AcDbEntity
  8
DIMNSIONS
 62
     7
100
AcDbText
 10
-60.58333333333334
 20
-290.7683333333335
 30
0.0
 40
8.144205729166666
  1
40.6
 41
0.7
 11
-60.58333333333334
 21
-282.6241276041668
 31
0.0
100
AcDbText
 73
     3
  0
TEXT
  5
DA
330
407
100
AcDbEntity
  8
DIMNSIONS
 62
     7
100
AcDbText
 10
18.75
 20
-303.81
 30
0.0
 40
8.144205729166666
  1
※センター振り分け
 41
0.7
 11
18.75
 21
-295.6657942708332
 31
0.0
100
AcDbText
 73
     3
  0
TEXT
  5
DB
330
407
100
AcDbEntity
  8
DIMNSIONS
 62
     7
100
AcDbText
 10
-39.41666666666668
 20
-284.7146666666668
 30
0.0
 40
6.515364583333332
  1
※
 41
0.7
 11
-39.41666666666668
 21
-278.1993020833334
 31
0.0
100
AcDbText
 73
     3
  0
TEXT
  5
DC
330
407
100
AcDbEntity
  8
DIMNSIONS
 62
     7
100
AcDbText
 10
-39.41666666666668
 20
-34.7146666666667
 30
0.0
 40
6.515364583333332
  1
※
 41
0.7
 11
-39.41666666666668
 21
-28.19930208333337
 31
0.0
100
AcDbText
 73
     3
  0
LINE
  5
DD
330
407
100
AcDbEntity
  8
DIMNSIONS
  6
Continuous
 62
     7
100
AcDbLine
 10
-104.7499999999999
 20
62.64599999999734
 30
0.0
 11
-104.7499999999999
 21
79.5625
 31
0.0
  0
LINE
  5
DE
330
407
100
AcDbEntity
  8
DIMNSIONS
  6
Continuous
 62
     7
100
AcDbLine
 10
-106.7499999999999
 20
68.14599999999898
 30
0.0
 11
-106.7499999999999
 21
79.5625
 31
0.0
  0
LINE
  5
DF
330
407
100
AcDbEntity
  8
DIMNSIONS
  6
Continuous
 62
     7
100
AcDbLine
 10
-106.7499999999999
 20
76.5625
 30
0.0
 11
-104.7499999999999
 21
76.5625
 31
0.0
  0
LINE
  5
E0
330
407
100
AcDbEntity
  8
DIMNSIONS
  6
Continuous
 62
     7
100
AcDbLine
 10
-104.7499999999999
 20
76.5625
 30
0.0
 11
-84.12499999999999
 21
76.5625
 31
0.0
  0
LINE
  5
E1
330
407
100
AcDbEntity
  8
DIMNSIONS
  6
Continuous
 62
     7
100
AcDbLine
 10
-104.7499999999999
 20
76.5625
 30
0.0
 11
-98.75036621093745
 21
78.17009702866179
 31
0.0
  0
LINE
  5
E2
330
407
100
AcDbEntity
  8
DIMNSIONS
  6
Continuous
 62
     7
100
AcDbLine
 10
-104.7499999999999
 20
76.5625
 30
0.0
 11
-98.75036621093745
 21
74.95490297133823
 31
0.0
  0
LINE
  5
E3
330
407
100
AcDbEntity
  8
DIMNSIONS
  6
Continuous
 62
     7
100
AcDbLine
 10
-106.7499999999999
 20
76.5625
 30
0.0
 11
-117.2499999999999
 21
76.5625
 31
0.0
  0
LINE
  5
E4
330
407
100
AcDbEntity
  8
DIMNSIONS
  6
Continuous
 62
     7
100
AcDbLine
 10
-106.7499999999999
 20
76.5625
 30
0.0
 11
-112.7496337890624
 21
74.95490297133823
 31
0.0
  0
LINE
  5
E5
330
407
100
AcDbEntity
  8
DIMNSIONS
  6
Continuous
 62
     7
100
AcDbLine
 10
-106.7499999999999
 20
76.5625
 30
0.0
 11
-112.7496337890624
 21
78.17009702866179
 31
0.0
  0
TEXT
  5
E6
330
407
100
AcDbEntity
  8
DIMNSIONS
 62
     7
100
AcDbText
 10
-100.0
 20
79.54416666666666
 30
0.0
 40
8.144205729166666
  1
2.0
 41
0.7
 11
-100.0
 21
87.68837239583332
 31
0.0
100
AcDbText
 73
     3
  0
LINE
  5
E7
330
407
100
AcDbEntity
  8
DIMNSIONS
  6
Continuous
 62
     7
100
AcDbLine
 10
-104.7499999999999
 20
-187.3540000000026
 30
0.0
 11
-104.7499999999999
 21
-170.4375
 31
0.0
  0
LINE
  5
E8
330
407
100
AcDbEntity
  8
DIMNSIONS
  6
Continuous
 62
     7
100
AcDbLine
 10
-106.7499999999999
 20
-181.8540000000011
 30
0.0
 11
-106.7499999999999
 21
-170.4375
 31
0.0
  0
LINE
  5
E9
330
407
100
AcDbEntity
  8
DIMNSIONS
  6
Continuous
 62
     7
100
AcDbLine
 10
-106.7499999999999
 20
-173.4375
 30
0.0
 11
-104.7499999999999
 21
-173.4375
 31
0.0
  0
LINE
  5
EA
330
407
100
AcDbEntity
  8
DIMNSIONS
  6
Continuous
 62
     7
100
AcDbLine
 10
-104.7499999999999
 20
-173.4375
 30
0.0
 11
-84.12499999999999
 21
-173.4375
 31
0.0
  0
LINE
  5
EB
330
407
100
AcDbEntity
  8
DIMNSIONS
  6
Continuous
 62
     7
100
AcDbLine
 10
-104.7499999999999
 20
-173.4375
 30
0.0
 11
-98.75036621093745
 21
-171.8299029713382
 31
0.0
  0
LINE
  5
EC
330
407
100
AcDbEntity
  8
DIMNSIONS
  6
Continuous
 62
     7
100
AcDbLine
 10
-104.7499999999999
 20
-173.4375
 30
0.0
 11
-98.75036621093745
 21
-175.0450970286618
 31
0.0
  0
LINE
  5
ED
330
407
100
AcDbEntity
  8
DIMNSIONS
  6
Continuous
 62
     7
100
AcDbLine
 10
-106.7499999999999
 20
-173.4375
 30
0.0
 11
-117.2499999999999
 21
-173.4375
 31
0.0
  0
LINE
  5
EE
330
407
100
AcDbEntity
  8
DIMNSIONS
  6
Continuous
 62
     7
100
AcDbLine
 10
-106.7499999999999
 20
-173.4375
 30
0.0
 11
-112.7496337890624
 21
-175.0450970286618
 31
0.0
  0
LINE
  5
EF
330
407
100
AcDbEntity
  8
DIMNSIONS
  6
Continuous
 62
     7
100
AcDbLine
 10
-106.7499999999999
 20
-173.4375
 30
0.0
 11
-112.7496337890624
 21
-171.8299029713382
 31
0.0
  0
TEXT
  5
F0
330
407
100
AcDbEntity
  8
DIMNSIONS
 62
     7
100
AcDbText
 10
-100.0
 20
-170.4558333333333
 30
0.0
 40
8.144205729166666
  1
2.0
 41
0.7
 11
-100.0
 21
-162.3116276041666
 31
0.0
100
AcDbText
 73
     3
  0
TEXT
  5
F1
330
407
100
AcDbEntity
  8
DATA
 62
     7
100
AcDbText
 10
-61.22916666666667
 20
-268.3217203362977
 30
0.0
 40
2.1484375
  1
MICROPHONE FRONT
 41
0.7
 72
     1
 11
-50.0
 21
-267.2475015862977
 31
0.0
100
AcDbText
 73
     2
  0
TEXT
  5
F2
330
407
100
AcDbEntity
  8
DATA
 62
     7
100
AcDbText
 10
-55.21354166666666
 20
-229.5007762690404
 30
0.0
 40
1.71875
  1
PERMANENT
 41
0.7
 72
     1
 11
-50.0
 21
-228.6414012690404
 31
0.0
100
AcDbText
 73
     2
  0
TEXT
  5
F3
330
407
100
AcDbEntity
  8
DATA
 62
     7
100
AcDbText
 10
-56.6171875
 20
-232.0007762690404
 30
0.0
 40
1.71875
  1
INSTALLATION
 41
0.7
 72
     1
 11
-50.0
 21
-231.1414012690404
 31
0.0
100
AcDbText
 73
     2
  0
TEXT
  5
F4
330
407
100
AcDbEntity
  8
DATA
 62
     7
100
AcDbText
 10
-55.93541666666666
 20
-227.0007762690404
 30
0.0
 40
1.71875
  1
CUT OUT FOR
 41
0.7
 72
     1
 11
-50.0
 21
-226.1414012690404
 31
0.0
100
AcDbText
 73
     2
  0
TEXT
  5
F5
330
407
100
AcDbEntity
  8
DATA
 62
     7
100
AcDbText
 10
-61.22916666666667
 20
-18.32172033629771
 30
0.0
 40
2.1484375
  1
MICROPHONE FRONT
 41
0.7
 72
     1
 11
-50.0
 21
-17.24750158629771
 31
0.0
100
AcDbText
 73
     2
  0
TEXT
  5
F6
330
407
100
AcDbEntity
  8
DATA
 62
     7
100
AcDbText
 10
-29.00000000000013
 20
43.13862373096026
 30
0.0
 40
1.71875
  1
MOM.
 41
0.7
 11
-29.00000000000013
 21
43.99799873096026
 31
0.0
100
AcDbText
 73
     2
  0
TEXT
  5
F7
330
407
100
AcDbEntity
  8
DATA
 62
     7
100
AcDbText
 10
-29.00000000000013
 20
47.6386237309602
 30
0.0
 40
1.71875
  1
MOM.
 41
0.7
 11
-29.00000000000013
 21
48.49799873096021
 31
0.0
100
AcDbText
 73
     2
  0
TEXT
  5
F8
330
407
100
AcDbEntity
  8
DATA
 62
     7
100
AcDbText
 10
-36.3994981914027
 20
39.13862373095999
 30
0.0
 40
1.71875
  1
PUSH ON
 41
0.7
 72
     1
 11
-32.62970652473604
 21
39.99799873095999
 31
0.0
100
AcDbText
 73
     2
  0
TEXT
  5
F9
330
407
100
AcDbEntity
  8
DATA
 62
     7
100
AcDbText
 10
-27.98904685947845
 20
45.63862373096021
 30
0.0
 40
1.71875
  1
ON
 41
0.7
 11
-27.98904685947845
 21
46.49799873096021
 31
0.0
100
AcDbText
 73
     2
  0
TEXT
  5
FA
330
407
100
AcDbEntity
  8
DATA
 62
     7
100
AcDbText
 10
-28.49452342973929
 20
41.13862373096026
 30
0.0
 40
1.71875
  1
OFF
 41
0.7
 11
-28.49452342973929
 21
41.99799873096026
 31
0.0
100
AcDbText
 73
     2
  0
TEXT
  5
FB
330
407
100
AcDbEntity
  8
DATA
 62
     7
100
AcDbText
 10
-36.9481615514147
 20
37.13862373096009
 30
0.0
 40
1.71875
  1
PUSH OFF
 41
0.7
 72
     1
 11
-32.57680738474804
 21
37.99799873096009
 31
0.0
100
AcDbText
 73
     2
  0
TEXT
  5
FC
330
407
100
AcDbEntity
  8
DATA
 62
     7
100
AcDbText
 10
-36.09145983139069
 20
34.13862373096004
 30
0.0
 40
1.71875
  1
SWITCH
 41
0.7
 72
     1
 11
-32.68260566472402
 21
34.99799873096004
 31
0.0
100
AcDbText
 73
     2
  0
TEXT
  5
FD
330
407
100
AcDbEntity
  8
DATA
 62
     7
100
AcDbText
 10
-36.98826571808126
 20
32.13862373096004
 30
0.0
 40
1.71875
  1
FUNCTION
 41
0.7
 72
     1
 11
-32.57680738474793
 21
32.99799873096004
 31
0.0
100
AcDbText
 73
     2
  0
TEXT
  5
FE
330
407
100
AcDbEntity
  8
DATA
 62
     7
100
AcDbText
 10
-45.50000000000002
 20
37.43862373096068
 30
0.0
 40
1.71875
  1
CUT
 41
0.7
 11
-45.50000000000002
 21
38.29799873096068
 31
0.0
100
AcDbText
 73
     2
  0
TEXT
  5
FF
330
407
100
AcDbEntity
  8
DATA
 62
     7
100
AcDbText
 10
-54.77239583333333
 20
32.63862373096055
 30
0.0
 40
1.71875
  1
BASS TILT
 41
0.7
 72
     1
 11
-50.0
 21
33.49799873096055
 31
0.0
100
AcDbText
 73
     2
  0
TEXT
  5
100
330
407
100
AcDbEntity
  8
DATA
 62
     7
100
AcDbText
 10
-52.20572916666666
 20
35.83862373096054
 30
0.0
 40
1.71875
  1
FLAT
 41
0.7
 72
     1
 11
-50.0
 21
36.69799873096054
 31
0.0
100
AcDbText
 73
     2
  0
TEXT
  5
101
330
407
100
AcDbEntity
  8
DATA
 62
     7
100
AcDbText
 10
-59.58559243810538
 20
37.43862373096068
 30
0.0
 40
1.71875
  1
BOOST
 41
0.7
 72
     2
 11
-53.97100910477204
 21
38.29799873096068
 31
0.0
100
AcDbText
 73
     2
  0
TEXT
  5
102
330
407
100
AcDbEntity
  8
DATA
 62
     7
100
AcDbText
 10
-262.5
 20
-359.3075366666667
 30
0.0
 40
5.700944010416667
  1
※仕様及び外観は予告なく変更されることがあります。
 41
0.7
 11
-262.5
 21
-353.60659265625
 31
0.0
100
AcDbText
 73
     3
  0
TEXT
  5
103
330
407
100
AcDbEntity
  8
DATA
 62
     7
100
AcDbText
 10
-262.5
 20
-366.7158699999999
 30
0.0
 40
5.700944010416667
  1
　また、同一商品でも若干の個体差があることがあります。ご了承ください。
 41
0.7
 11
-262.5
 21
-361.0149259895833
 31
0.0
100
AcDbText
 73
     3
  0
LINE
  5
104
330
407
100
AcDbEntity
  8
DATA
  6
Continuous
 62
     7
100
AcDbLine
 10
-35.30706781186565
 20
-275.0000000000033
 30
0.0
 11
-64.69293218813437
 21
-275.0000000000033
 31
0.0
  0
LINE
  5
105
330
407
100
AcDbEntity
  8
DATA
  6
Continuous
 62
     7
100
AcDbLine
 10
-36.03488527117067
 20
-273.0000000000033
 30
0.0
 11
-63.96511472882913
 21
-273.0000000000035
 31
0.0
  0
LINE
  5
106
330
407
100
AcDbEntity
  8
DATA
  6
Continuous
 62
     7
100
AcDbLine
 10
-73.75000000000001
 20
-186.3540000000044
 30
0.0
 11
-26.25000000000013
 21
-186.3540000000044
 31
0.0
  0
LINE
  5
107
330
407
100
AcDbEntity
  8
DATA
  6
Continuous
 62
     7
100
AcDbLine
 10
-70.25000000000012
 20
-187.6040000000045
 30
0.0
 11
-29.75000000000001
 21
-187.6040000000032
 31
0.0
  0
LINE
  5
108
330
407
100
AcDbEntity
  8
DATA
  6
Continuous
 62
     7
100
AcDbLine
 10
-67.07000599999993
 20
-228.5434000000048
 30
0.0
 11
-57.00000000000002
 21
-228.5434000000048
 31
0.0
  0
LINE
  5
109
330
407
100
AcDbEntity
  8
DATA
  6
Continuous
 62
     7
100
AcDbLine
 10
-35.30706781186565
 20
-25.00000000000329
 30
0.0
 11
-64.69293218813437
 21
-25.00000000000329
 31
0.0
  0
LINE
  5
10A
330
407
100
AcDbEntity
  8
DATA
  6
Continuous
 62
     7
100
AcDbLine
 10
-36.03488527117067
 20
-23.00000000000329
 30
0.0
 11
-63.96511472882913
 21
-23.00000000000352
 31
0.0
  0
LINE
  5
10B
330
407
100
AcDbEntity
  8
DATA
  6
Continuous
 62
     7
100
AcDbLine
 10
-73.75000000000001
 20
63.64599999999569
 30
0.0
 11
-26.25000000000013
 21
63.64599999999569
 31
0.0
  0
LINE
  5
10C
330
407
100
AcDbEntity
  8
DATA
  6
Continuous
 62
     7
100
AcDbLine
 10
-70.25000000000012
 20
62.39599999999557
 30
0.0
 11
-29.75000000000001
 21
62.39599999999693
 31
0.0
  0
LINE
  5
10D
330
407
100
AcDbEntity
  8
DATA
  6
Continuous
 62
     7
100
AcDbLine
 10
-67.07000599999993
 20
21.45659999999514
 30
0.0
 11
-57.00000000000002
 21
21.45659999999514
 31
0.0
  0
LINE
  5
10E
330
407
100
AcDbEntity
  8
DATA
  6
Continuous
 62
     7
100
AcDbLine
 10
-204.2499999999999
 20
-206.3540000000011
 30
0.0
 11
-145.7500000000001
 21
-206.3540000000011
 31
0.0
  0
LINE
  5
10F
330
407
100
AcDbEntity
  8
DATA
  6
Continuous
 62
     7
100
AcDbLine
 10
-151.7500000000001
 20
-264.0
 30
0.0
 11
-198.2499999999999
 21
-264.0
 31
0.0
  0
LINE
  5
110
330
407
100
AcDbEntity
  8
DATA
  6
Continuous
 62
     7
100
AcDbLine
 10
-198.75
 20
-186.3540000000011
 30
0.0
 11
-151.2500000000001
 21
-186.3540000000011
 31
0.0
  0
LINE
  5
111
330
407
100
AcDbEntity
  8
DATA
  6
Continuous
 62
     7
100
AcDbLine
 10
-160.3070678118655
 20
-275.0
 30
0.0
 11
-189.6929321881345
 21
-275.0
 31
0.0
  0
LINE
  5
112
330
407
100
AcDbEntity
  8
DATA
  6
Continuous
 62
     7
100
AcDbLine
 10
-160.9599349224705
 20
-273.0
 30
0.0
 11
-189.0400650775294
 21
-273.0
 31
0.0
  0
LINE
  5
113
330
407
100
AcDbEntity
  8
DATA
  6
Continuous
 62
     7
100
AcDbLine
 10
-156.674220636756
 20
-266.0
 30
0.0
 11
-193.3257793632437
 21
-266.0
 31
0.0
  0
ARC
  5
114
330
407
100
AcDbEntity
  8
DATA
  6
Continuous
 62
     7
100
AcDbCircle
 10
-171.1243877279326
 20
-115.6445312499998
 30
0.0
 40
5.859375000000028
100
AcDbArc
 50
48.59037789072882
 51
131.4096221092703
  0
ARC
  5
115
330
407
100
AcDbEntity
  8
DATA
  6
Continuous
 62
     7
100
AcDbCircle
 10
-171.1243877279326
 20
-112.5195312499998
 30
0.0
 40
5.859375000000028
100
AcDbArc
 50
48.59037789072882
 51
131.4096221092703
  0
LINE
  5
116
330
407
100
AcDbEntity
  8
DATA
  6
Continuous
 62
     7
100
AcDbLine
 10
-206.75
 20
-257.9429321881345
 30
0.0
 11
-206.75
 21
-194.3540000000011
 31
0.0
  0
LINE
  5
117
330
407
100
AcDbEntity
  8
DATA
  6
Continuous
 62
     7
100
AcDbLine
 10
-204.2499999999999
 20
-258.0
 30
0.0
 11
-204.2499999999999
 21
-206.3540000000011
 31
0.0
  0
LINE
  5
118
330
407
100
AcDbEntity
  8
DATA
  6
Continuous
 62
     7
100
AcDbLine
 10
-193.2284660940672
 20
-273.5355339059328
 30
0.0
 11
-205.2855339059326
 21
-261.4784660940673
 31
0.0
  0
ARC
  5
119
330
407
100
AcDbEntity
  8
DATA
  6
Continuous
 62
     7
100
AcDbCircle
 10
-193.3257793632437
 20
-267.0000000000001
 30
0.0
 40
1.0
100
AcDbArc
 50
90.0
 51
220.6012946450023
  0
ARC
  5
11A
330
407
100
AcDbEntity
  8
DATA
  6
Continuous
 62
     7
100
AcDbCircle
 10
-201.75
 20
-257.9429321881345
 30
0.0
 40
5.0
100
AcDbArc
 50
180.0
 51
225.0000000000004
  0
ARC
  5
11B
330
407
100
AcDbEntity
  8
DATA
  6
Continuous
 62
     7
100
AcDbCircle
 10
-198.2499999999999
 20
-258.0
 30
0.0
 40
6.0
100
AcDbArc
 50
180.0
 51
270.0000000000011
  0
ARC
  5
11C
330
407
100
AcDbEntity
  8
DATA
  6
Continuous
 62
     7
100
AcDbCircle
 10
-189.0400650775294
 20
-272.0000000000001
 30
0.0
 40
1.000000000000044
100
AcDbArc
 50
220.6012946450048
 51
270.0
  0
ARC
  5
11D
330
407
100
AcDbEntity
  8
DATA
  6
Continuous
 62
     7
100
AcDbCircle
 10
-189.6929321881345
 20
-270.0
 30
0.0
 40
4.99999999999996
100
AcDbArc
 50
225.0000000000009
 51
270.0
  0
LINE
  5
11E
330
407
100
AcDbEntity
  8
DATA
  6
Continuous
 62
     7
100
AcDbLine
 10
-189.7993216798948
 20
-272.6507913734561
 30
0.0
 11
-194.085035965609
 21
-267.650791373456
 31
0.0
  0
LINE
  5
11F
330
407
100
AcDbEntity
  8
DATA
  6
Continuous
 62
     7
100
AcDbLine
 10
-179.5
 20
-120.9439999999997
 30
0.0
 11
-180.2450999999996
 21
-129.8139999999998
 31
0.0
  0
LINE
  5
120
330
407
100
AcDbEntity
  8
DATA
  6
Continuous
 62
     7
100
AcDbLine
 10
-170.4999999999999
 20
-120.9439999999997
 30
0.0
 11
-169.7549000000001
 21
-129.8139999999998
 31
0.0
  0
ARC
  5
121
330
407
100
AcDbEntity
  8
DATA
  6
Continuous
 62
     7
100
AcDbCircle
 10
-192.9999999999999
 20
-194.3540000000011
 30
0.0
 40
8.0
100
AcDbArc
 50
90.0
 51
180.0
  0
ARC
  5
122
330
407
100
AcDbEntity
  8
DATA
  6
Continuous
 62
     7
100
AcDbCircle
 10
-198.75
 20
-194.3540000000011
 30
0.0
 40
8.0
100
AcDbArc
 50
90.0
 51
180.0
  0
ARC
  5
123
330
407
100
AcDbEntity
  8
DATA
  6
Continuous
 62
     7
100
AcDbCircle
 10
-199.0
 20
-204.3540000000011
 30
0.0
 40
2.0
100
AcDbArc
 50
180.0
 51
270.0
  0
LINE
  5
124
330
407
100
AcDbEntity
  8
DATA
  6
Continuous
 62
     7
100
AcDbLine
 10
-201.0
 20
-204.3540000000011
 30
0.0
 11
-201.0
 21
-194.3540000000011
 31
0.0
  0
LINE
  5
125
330
407
100
AcDbEntity
  8
DATA
  6
Continuous
 62
     7
100
AcDbLine
 10
-179.2499999999999
 20
-156.25
 30
0.0
 11
-179.2499999999999
 21
-147.6139999999999
 31
0.0
  0
LINE
  5
126
330
407
100
AcDbEntity
  8
DATA
  6
Continuous
 62
     7
100
AcDbLine
 10
-170.7499999999999
 20
-156.25
 30
0.0
 11
-170.7499999999999
 21
-147.6139999999999
 31
0.0
  0
LINE
  5
127
330
407
100
AcDbEntity
  8
DATA
  6
Continuous
 62
     7
100
AcDbLine
 10
-173.9999999999999
 20
-156.25
 30
0.0
 11
-173.9999999999999
 21
-147.6139999999999
 31
0.0
  0
LINE
  5
128
330
407
100
AcDbEntity
  8
DATA
  6
Continuous
 62
     7
100
AcDbLine
 10
-175.9999999999999
 20
-156.25
 30
0.0
 11
-175.9999999999999
 21
-147.6139999999999
 31
0.0
  0
LINE
  5
129
330
407
100
AcDbEntity
  8
DATA
  6
Continuous
 62
     7
100
AcDbLine
 10
-179.2499999999999
 20
-156.25
 30
0.0
 11
-170.7499999999999
 21
-156.25
 31
0.0
  0
LINE
  5
12A
330
407
100
AcDbEntity
  8
DATA
  6
Continuous
 62
     7
100
AcDbLine
 10
-177.7499999999999
 20
-150.4139999999998
 30
0.0
 11
-177.7499999999999
 21
-148.4139999999998
 31
0.0
  0
LINE
  5
12B
330
407
100
AcDbEntity
  8
DATA
  6
Continuous
 62
     7
100
AcDbLine
 10
-172.2500000000001
 20
-148.4139999999998
 30
0.0
 11
-172.2500000000001
 21
-150.4139999999999
 31
0.0
  0
LINE
  5
12C
330
407
100
AcDbEntity
  8
DATA
  6
Continuous
 62
     7
100
AcDbLine
 10
-177.7499999999999
 20
-148.4139999999998
 30
0.0
 11
-175.9999999999999
 21
-148.4139999999998
 31
0.0
  0
LINE
  5
12D
330
407
100
AcDbEntity
  8
DATA
  6
Continuous
 62
     7
100
AcDbLine
 10
-173.9999999999999
 20
-148.4139999999998
 30
0.0
 11
-172.2500000000001
 21
-148.4139999999998
 31
0.0
  0
LINE
  5
12E
330
407
100
AcDbEntity
  8
DATA
  6
Continuous
 62
     7
100
AcDbLine
 10
-177.7499999999999
 20
-150.4139999999998
 30
0.0
 11
-175.9999999999999
 21
-150.4139999999998
 31
0.0
  0
LINE
  5
12F
330
407
100
AcDbEntity
  8
DATA
  6
Continuous
 62
     7
100
AcDbLine
 10
-173.9999999999999
 20
-150.4139999999999
 30
0.0
 11
-172.2500000000001
 21
-150.4139999999999
 31
0.0
  0
LINE
  5
130
330
407
100
AcDbEntity
  8
DATA
  6
Continuous
 62
     7
100
AcDbLine
 10
-180.2450999999996
 20
-139.8139999999998
 30
0.0
 11
-169.7549000000001
 21
-139.8139999999998
 31
0.0
  0
LINE
  5
131
330
407
100
AcDbEntity
  8
DATA
  6
Continuous
 62
     7
100
AcDbLine
 10
-180.2450999999996
 20
-138.8139999999998
 30
0.0
 11
-169.7549000000001
 21
-138.8139999999998
 31
0.0
  0
LINE
  5
132
330
407
100
AcDbEntity
  8
DATA
  6
Continuous
 62
     7
100
AcDbLine
 10
-180.2450999999996
 20
-147.6139999999999
 30
0.0
 11
-180.2450999999996
 21
-139.8139999999998
 31
0.0
  0
LINE
  5
133
330
407
100
AcDbEntity
  8
DATA
  6
Continuous
 62
     7
100
AcDbLine
 10
-180.2450999999996
 20
-129.8139999999998
 30
0.0
 11
-180.2450999999996
 21
-138.8139999999998
 31
0.0
  0
LINE
  5
134
330
407
100
AcDbEntity
  8
DATA
  6
Continuous
 62
     7
100
AcDbLine
 10
-179.2499999999999
 20
-139.8139999999998
 30
0.0
 11
-179.2499999999999
 21
-138.8139999999998
 31
0.0
  0
LINE
  5
135
330
407
100
AcDbEntity
  8
DATA
  6
Continuous
 62
     7
100
AcDbLine
 10
-169.7549000000001
 20
-147.6139999999999
 30
0.0
 11
-169.7549000000001
 21
-139.8139999999998
 31
0.0
  0
LINE
  5
136
330
407
100
AcDbEntity
  8
DATA
  6
Continuous
 62
     7
100
AcDbLine
 10
-169.7549000000001
 20
-138.8139999999998
 30
0.0
 11
-169.7549000000001
 21
-129.8139999999998
 31
0.0
  0
LINE
  5
137
330
407
100
AcDbEntity
  8
DATA
  6
Continuous
 62
     7
100
AcDbLine
 10
-170.7499999999999
 20
-139.8139999999998
 30
0.0
 11
-170.7499999999999
 21
-138.8139999999998
 31
0.0
  0
CIRCLE
  5
138
330
407
100
AcDbEntity
  8
DATA
  6
Continuous
 62
     7
100
AcDbCircle
 10
-174.9999999999999
 20
-143.6139999999998
 30
0.0
 40
1.75
  0
LINE
  5
139
330
407
100
AcDbEntity
  8
DATA
  6
Continuous
 62
     7
100
AcDbLine
 10
-180.2450999999996
 20
-147.6139999999999
 30
0.0
 11
-169.7549000000001
 21
-147.6139999999999
 31
0.0
  0
LINE
  5
13A
330
407
100
AcDbEntity
  8
DATA
  6
Continuous
 62
     7
100
AcDbLine
 10
-180.2450999999996
 20
-129.8139999999998
 30
0.0
 11
-169.7549000000001
 21
-129.8139999999998
 31
0.0
  0
LINE
  5
13B
330
407
100
AcDbEntity
  8
DATA
  6
Continuous
 62
     7
100
AcDbLine
 10
-179.5
 20
-120.9439999999997
 30
0.0
 11
-170.4999999999999
 21
-120.9439999999997
 31
0.0
  0
ARC
  5
13C
330
407
100
AcDbEntity
  8
DATA
  6
Continuous
 62
     7
100
AcDbCircle
 10
-178.8756122720671
 20
-106.8554687499998
 30
0.0
 40
5.859374999999952
100
AcDbArc
 50
228.5903778907297
 51
311.4096221092712
  0
ARC
  5
13D
330
407
100
AcDbEntity
  8
DATA
  6
Continuous
 62
     7
100
AcDbCircle
 10
-178.8756122720671
 20
-103.7304687499998
 30
0.0
 40
5.859374999999952
100
AcDbArc
 50
228.5903778907297
 51
311.4096221092712
  0
LINE
  5
13E
330
407
100
AcDbEntity
  8
DATA
  6
Continuous
 62
     7
100
AcDbLine
 10
-177.4999999999998
 20
-120.9439999999997
 30
0.0
 11
-177.4999999999998
 21
-112.5510781350932
 31
0.0
  0
LINE
  5
13F
330
407
100
AcDbEntity
  8
DATA
  6
Continuous
 62
     7
100
AcDbLine
 10
-172.4999999999999
 20
-120.9439999999997
 30
0.0
 11
-172.4999999999999
 21
-109.9489218649066
 31
0.0
  0
LINE
  5
140
330
407
100
AcDbEntity
  8
DATA
  6
Continuous
 62
     7
100
AcDbLine
 10
-106.7499999999999
 20
-186.3540000000011
 30
0.0
 11
-106.7499999999999
 21
-275.0
 31
0.0
  0
LINE
  5
141
330
407
100
AcDbEntity
  8
DATA
  6
Continuous
 62
     7
100
AcDbLine
 10
-143.2500000000001
 20
-194.3540000000011
 30
0.0
 11
-143.2499999999999
 21
-257.9429321881345
 31
0.0
  0
LINE
  5
142
330
407
100
AcDbEntity
  8
DATA
  6
Continuous
 62
     7
100
AcDbLine
 10
-145.7500000000001
 20
-206.3540000000011
 30
0.0
 11
-145.7500000000001
 21
-258.0
 31
0.0
  0
LINE
  5
143
330
407
100
AcDbEntity
  8
DATA
  6
Continuous
 62
     7
100
AcDbLine
 10
-115.5265414517768
 20
-262.9477583620994
 30
0.0
 11
-129.7393546002622
 21
-234.5653688076077
 31
0.0
  0
LINE
  5
144
330
407
100
AcDbEntity
  8
DATA
  6
Continuous
 62
     7
100
AcDbLine
 10
-113.2499999999999
 20
-218.3540000000026
 30
0.0
 11
-113.2499999999999
 21
-264.5
 31
0.0
  0
LINE
  5
145
330
407
100
AcDbEntity
  8
DATA
  6
Continuous
 62
     7
100
AcDbLine
 10
-81.75000000000002
 20
-257.9429321881379
 30
0.0
 11
-81.75000000000002
 21
-194.3540000000044
 31
0.0
  0
LINE
  5
146
330
407
100
AcDbEntity
  8
DATA
  6
Continuous
 62
     7
100
AcDbLine
 10
-79.25000000000001
 20
-257.8559473400396
 30
0.0
 11
-79.25000000000001
 21
-194.3540000000044
 31
0.0
  0
ARC
  5
147
330
407
100
AcDbEntity
  8
DATA
  6
Continuous
 62
     7
100
AcDbCircle
 10
-114.6323868515147
 20
-262.5
 30
0.0
 40
1.000000000000028
100
AcDbArc
 50
206.5999534959456
 51
270.0
  0
TEXT
  5
148
330
407
100
AcDbEntity
  8
DATA
 62
     7
100
AcDbText
 10
-114.7274386935764
 20
-310.3221028645833
 30
0.0
 40
8.144205729166666
  1
PCC130
 41
0.7
 72
     1
 11
-100.0
 21
-306.25
 31
0.0
100
AcDbText
 73
     2
  0
LINE
  5
149
330
407
100
AcDbEntity
  8
DATA
  6
Continuous
 62
     7
100
AcDbLine
 10
-156.7715339059329
 20
-273.5355339059327
 30
0.0
 11
-144.7144660940674
 21
-261.4784660940673
 31
0.0
  0
ARC
  5
14A
330
407
100
AcDbEntity
  8
DATA
  6
Continuous
 62
     7
100
AcDbCircle
 10
-160.9599349224705
 20
-272.0
 30
0.0
 40
1.0
100
AcDbArc
 50
270.0
 51
319.3987053549977
  0
ARC
  5
14B
330
407
100
AcDbEntity
  8
DATA
  6
Continuous
 62
     7
100
AcDbCircle
 10
-160.3070678118655
 20
-269.9999999999999
 30
0.0
 40
5.0
100
AcDbArc
 50
270.0
 51
315.0
  0
ARC
  5
14C
330
407
100
AcDbEntity
  8
DATA
  6
Continuous
 62
     7
100
AcDbCircle
 10
-151.7500000000001
 20
-258.0
 30
0.0
 40
6.0
100
AcDbArc
 50
270.0
 51
0.0
  0
ARC
  5
14D
330
407
100
AcDbEntity
  8
DATA
  6
Continuous
 62
     7
100
AcDbCircle
 10
-148.25
 20
-257.9429321881345
 30
0.0
 40
5.0
100
AcDbArc
 50
315.0000000000004
 51
0.0
  0
ARC
  5
14E
330
407
100
AcDbEntity
  8
DATA
  6
Continuous
 62
     7
100
AcDbCircle
 10
-156.674220636756
 20
-266.9999999999999
 30
0.0
 40
1.000000000000044
100
AcDbArc
 50
319.3987053549952
 51
90.0
  0
LINE
  5
14F
330
407
100
AcDbEntity
  8
DATA
  6
Continuous
 62
     7
100
AcDbLine
 10
-160.2006783201051
 20
-272.6507913734559
 30
0.0
 11
-155.914964034391
 21
-267.6507913734559
 31
0.0
  0
LINE
  5
150
330
407
100
AcDbEntity
  8
DATA
  6
Continuous
 62
     7
100
AcDbLine
 10
-113.2499999999999
 20
-264.5
 30
0.0
 11
-110.4572225348864
 21
-274.2747211278974
 31
0.0
  0
ARC
  5
151
330
407
100
AcDbEntity
  8
DATA
  6
Continuous
 62
     7
100
AcDbCircle
 10
-109.4956985872456
 20
-274.0
 30
0.0
 40
0.9999999999999715
100
AcDbArc
 50
195.9453959009251
 51
270.0
  0
LINE
  5
152
330
407
100
AcDbEntity
  8
DATA
  6
Continuous
 62
     7
100
AcDbLine
 10
-106.7499999999999
 20
-275.0
 30
0.0
 11
-109.4956985872456
 21
-275.0
 31
0.0
  0
LINE
  5
153
330
407
100
AcDbEntity
  8
DATA
  6
Continuous
 62
     7
100
AcDbLine
 10
-113.2499999999999
 20
-263.5
 30
0.0
 11
-114.6323868515147
 21
-263.5000000000001
 31
0.0
  0
LINE
  5
154
330
407
100
AcDbEntity
  8
DATA
  6
Continuous
 62
     7
100
AcDbLine
 10
-104.7499999999999
 20
-263.5000000000016
 30
0.0
 11
-104.7499999999999
 21
-268.5000000000016
 31
0.0
  0
LINE
  5
155
330
407
100
AcDbEntity
  8
DATA
  6
Continuous
 62
     7
100
AcDbLine
 10
-106.7499999999999
 20
-262.0000000000016
 30
0.0
 11
-104.7499999999999
 21
-263.5000000000016
 31
0.0
  0
LINE
  5
156
330
407
100
AcDbEntity
  8
DATA
  6
Continuous
 62
     7
100
AcDbLine
 10
-104.7499999999999
 20
-268.5000000000016
 30
0.0
 11
-106.7499999999999
 21
-270.0000000000016
 31
0.0
  0
ARC
  5
157
330
407
100
AcDbEntity
  8
DATA
  6
Continuous
 62
     7
100
AcDbCircle
 10
-63.96511472882913
 20
-269.9500000000035
 30
0.0
 40
3.049999999999976
100
AcDbArc
 50
225.0000000000007
 51
270.0
  0
LINE
  5
158
330
407
100
AcDbEntity
  8
DATA
  6
Continuous
 62
     7
100
AcDbLine
 10
-68.22846609406726
 20
-273.5355339059361
 30
0.0
 11
-80.28553390593264
 21
-261.4784660940706
 31
0.0
  0
ARC
  5
159
330
407
100
AcDbEntity
  8
DATA
  6
Continuous
 62
     7
100
AcDbCircle
 10
-64.69293218813437
 20
-270.0000000000033
 30
0.0
 40
5.00000000000012
100
AcDbArc
 50
224.9999999999991
 51
270.0
  0
CIRCLE
  5
15A
330
407
100
AcDbEntity
  8
DATA
  6
Continuous
 62
     7
100
AcDbCircle
 10
-66.00000000000001
 20
-266.0000000000033
 30
0.0
 40
4.0
  0
CIRCLE
  5
15B
330
407
100
AcDbEntity
  8
DATA
  6
Continuous
 62
     7
100
AcDbCircle
 10
-66.00000000000001
 20
-266.0000000000033
 30
0.0
 40
2.5
  0
ARC
  5
15C
330
407
100
AcDbEntity
  8
DATA
  6
Continuous
 62
     7
100
AcDbCircle
 10
-76.75000000000013
 20
-257.9429321881379
 30
0.0
 40
5.0
100
AcDbArc
 50
180.0
 51
224.9999999999996
  0
ARC
  5
15D
330
407
100
AcDbEntity
  8
DATA
  6
Continuous
 62
     7
100
AcDbCircle
 10
-76.53999999999998
 20
-257.8559473400396
 30
0.0
 40
2.710000000000036
100
AcDbArc
 50
180.0
 51
224.9999999999983
  0
LINE
  5
15E
330
407
100
AcDbEntity
  8
DATA
  6
Continuous
 62
     7
100
AcDbLine
 10
-66.12179041144819
 20
-272.1066756826224
 30
0.0
 11
-78.4562593770155
 21
-259.7722067170552
 31
0.0
  0
ARC
  5
15F
330
407
100
AcDbEntity
  8
DATA
  6
Continuous
 62
     7
100
AcDbCircle
 10
-125.2499999999999
 20
-218.3540000000026
 30
0.0
 40
12.0
100
AcDbArc
 50
0.0
 51
90.0
  0
LINE
  5
160
330
407
100
AcDbEntity
  8
DATA
  6
Continuous
 62
     7
100
AcDbLine
 10
-129.8451999999999
 20
-186.3540000000011
 30
0.0
 11
-106.7499999999999
 21
-186.3540000000011
 31
0.0
  0
LINE
  5
161
330
407
100
AcDbEntity
  8
DATA
  6
Continuous
 62
     7
100
AcDbLine
 10
-123.5952
 20
-151.75
 30
0.0
 11
-115.0951999999999
 21
-151.75
 31
0.0
  0
LINE
  5
162
330
407
100
AcDbEntity
  8
DATA
  6
Continuous
 62
     7
100
AcDbLine
 10
-123.5952
 20
-156.25
 30
0.0
 11
-115.0951999999999
 21
-156.25
 31
0.0
  0
LINE
  5
163
330
407
100
AcDbEntity
  8
DATA
  6
Continuous
 62
     7
100
AcDbLine
 10
-124.5902999999998
 20
-147.614
 30
0.0
 11
-114.1001000000001
 21
-147.614
 31
0.0
  0
LINE
  5
164
330
407
100
AcDbEntity
  8
DATA
  6
Continuous
 62
     7
100
AcDbLine
 10
-124.5902999999998
 20
-138.8139999999999
 30
0.0
 11
-114.1001000000001
 21
-138.8139999999999
 31
0.0
  0
LINE
  5
165
330
407
100
AcDbEntity
  8
DATA
  6
Continuous
 62
     7
100
AcDbLine
 10
-124.5902999999998
 20
-139.8139999999999
 30
0.0
 11
-114.1001000000001
 21
-139.8139999999999
 31
0.0
  0
LINE
  5
166
330
407
100
AcDbEntity
  8
DATA
  6
Continuous
 62
     7
100
AcDbLine
 10
-124.5902999999998
 20
-129.8139999999999
 30
0.0
 11
-114.1001000000001
 21
-129.8139999999999
 31
0.0
  0
LINE
  5
167
330
407
100
AcDbEntity
  8
DATA
  6
Continuous
 62
     7
100
AcDbLine
 10
-123.8451999999999
 20
-120.9439999999997
 30
0.0
 11
-114.8452
 21
-120.9439999999997
 31
0.0
  0
ARC
  5
168
330
407
100
AcDbEntity
  8
DATA
  6
Continuous
 62
     7
100
AcDbCircle
 10
-115.4695877279325
 20
-115.6445312499999
 30
0.0
 40
5.859374999999952
100
AcDbArc
 50
48.59037789072965
 51
131.4096221092712
  0
ARC
  5
169
330
407
100
AcDbEntity
  8
DATA
  6
Continuous
 62
     7
100
AcDbCircle
 10
-115.4695877279325
 20
-112.5195312499999
 30
0.0
 40
5.859374999999952
100
AcDbArc
 50
48.59037789072965
 51
131.4096221092712
  0
TEXT
  5
16A
330
407
100
AcDbEntity
  8
DATA
 62
     7
100
AcDbText
 10
-123.0888232421875
 20
-60.32210286458326
 30
0.0
 40
8.144205729166666
  1
PCC130 SW
 41
0.7
 72
     1
 11
-100.0
 21
-56.24999999999992
 31
0.0
100
AcDbText
 73
     2
  0
LINE
  5
16B
330
407
100
AcDbEntity
  8
DATA
  6
Continuous
 62
     7
100
AcDbLine
 10
-123.8451999999999
 20
-120.9439999999997
 30
0.0
 11
-124.5902999999998
 21
-129.8139999999999
 31
0.0
  0
ARC
  5
16C
330
407
100
AcDbEntity
  8
DATA
  6
Continuous
 62
     7
100
AcDbCircle
 10
-157.0
 20
-194.3540000000011
 30
0.0
 40
8.0
100
AcDbArc
 50
0.0
 51
90.0
  0
ARC
  5
16D
330
407
100
AcDbEntity
  8
DATA
  6
Continuous
 62
     7
100
AcDbCircle
 10
-151.2500000000001
 20
-194.3540000000011
 30
0.0
 40
8.0
100
AcDbArc
 50
0.0
 51
90.0
  0
ARC
  5
16E
330
407
100
AcDbEntity
  8
DATA
  6
Continuous
 62
     7
100
AcDbCircle
 10
-151.0
 20
-204.3540000000011
 30
0.0
 40
2.0
100
AcDbArc
 50
270.0
 51
0.0
  0
LINE
  5
16F
330
407
100
AcDbEntity
  8
DATA
  6
Continuous
 62
     7
100
AcDbLine
 10
-149.0
 20
-204.3540000000011
 30
0.0
 11
-149.0
 21
-194.3540000000011
 31
0.0
  0
LINE
  5
170
330
407
100
AcDbEntity
  8
DATA
  6
Continuous
 62
     7
100
AcDbLine
 10
-123.5952
 20
-148.4139999999998
 30
0.0
 11
-123.5952
 21
-147.614
 31
0.0
  0
LINE
  5
171
330
407
100
AcDbEntity
  8
DATA
  6
Continuous
 62
     7
100
AcDbLine
 10
-129.8451999999999
 20
-206.3540000000026
 30
0.0
 11
-129.8451999999999
 21
-234.1176104455082
 31
0.0
  0
ARC
  5
172
330
407
100
AcDbEntity
  8
DATA
  6
Continuous
 62
     7
100
AcDbCircle
 10
-128.8452
 20
-234.1176104455082
 30
0.0
 40
1.0
100
AcDbArc
 50
180.0
 51
206.5999534959456
  0
ARC
  5
173
330
407
100
AcDbEntity
  8
DATA
  6
Continuous
 62
     7
100
AcDbCircle
 10
-129.8451999999999
 20
-188.3540000000011
 30
0.0
 40
2.0
100
AcDbArc
 50
90.0
 51
180.0
  0
LINE
  5
174
330
407
100
AcDbEntity
  8
DATA
  6
Continuous
 62
     7
100
AcDbLine
 10
-131.8451999999999
 20
-188.3540000000011
 30
0.0
 11
-131.8451999999999
 21
-205.3540000000027
 31
0.0
  0
ARC
  5
175
330
407
100
AcDbEntity
  8
DATA
  6
Continuous
 62
     7
100
AcDbCircle
 10
-130.8452
 20
-205.3540000000027
 30
0.0
 40
1.0
100
AcDbArc
 50
180.0
 51
270.0
  0
LINE
  5
176
330
407
100
AcDbEntity
  8
DATA
  6
Continuous
 62
     7
100
AcDbLine
 10
-130.8452
 20
-206.3540000000027
 30
0.0
 11
-125.2499999999999
 21
-206.3540000000026
 31
0.0
  0
LINE
  5
177
330
407
100
AcDbEntity
  8
DATA
  6
Continuous
 62
     7
100
AcDbLine
 10
-124.3902999999997
 20
-148.6139999999999
 30
0.0
 11
-123.5952
 21
-151.75
 31
0.0
  0
LINE
  5
178
330
407
100
AcDbEntity
  8
DATA
  6
Continuous
 62
     7
100
AcDbLine
 10
-124.5902999999998
 20
-148.6139999999999
 30
0.0
 11
-124.3902999999997
 21
-148.6139999999999
 31
0.0
  0
LINE
  5
179
330
407
100
AcDbEntity
  8
DATA
  6
Continuous
 62
     7
100
AcDbLine
 10
-123.7952000000001
 20
-151.75
 30
0.0
 11
-124.5902999999998
 21
-148.6139999999999
 31
0.0
  0
LINE
  5
17A
330
407
100
AcDbEntity
  8
DATA
  6
Continuous
 62
     7
100
AcDbLine
 10
-123.5952
 20
-156.25
 30
0.0
 11
-123.5952
 21
-150.4139999999998
 31
0.0
  0
LINE
  5
17B
330
407
100
AcDbEntity
  8
DATA
  6
Continuous
 62
     7
100
AcDbLine
 10
-122.5951999999999
 20
-148.4139999999998
 30
0.0
 11
-123.5952
 21
-148.4139999999998
 31
0.0
  0
LINE
  5
17C
330
407
100
AcDbEntity
  8
DATA
  6
Continuous
 62
     7
100
AcDbLine
 10
-122.5951999999999
 20
-150.4139999999998
 30
0.0
 11
-122.5951999999999
 21
-148.4139999999998
 31
0.0
  0
LINE
  5
17D
330
407
100
AcDbEntity
  8
DATA
  6
Continuous
 62
     7
100
AcDbLine
 10
-122.5951999999999
 20
-150.4139999999998
 30
0.0
 11
-123.5952
 21
-150.4139999999998
 31
0.0
  0
LINE
  5
17E
330
407
100
AcDbEntity
  8
DATA
  6
Continuous
 62
     7
100
AcDbLine
 10
-124.1258653150671
 20
-155.7299898630034
 30
0.0
 11
-123.5952
 21
-151.75
 31
0.0
  0
ARC
  5
17F
330
407
100
AcDbEntity
  8
DATA
  6
Continuous
 62
     7
100
AcDbCircle
 10
-123.5952
 20
-155.45
 30
0.0
 40
0.6000000000000303
100
AcDbArc
 50
207.8170447905761
 51
270.0
  0
LINE
  5
180
330
407
100
AcDbEntity
  8
DATA
  6
Continuous
 62
     7
100
AcDbLine
 10
-124.3305429987243
 20
-155.7650724904321
 30
0.0
 11
-123.7952000000001
 21
-151.75
 31
0.0
  0
ARC
  5
181
330
407
100
AcDbEntity
  8
DATA
  6
Continuous
 62
     7
100
AcDbCircle
 10
-123.5952
 20
-155.45
 30
0.0
 40
0.8000000000000733
100
AcDbArc
 50
203.193685665721
 51
270.0
  0
LINE
  5
182
330
407
100
AcDbEntity
  8
DATA
  6
Continuous
 62
     7
100
AcDbLine
 10
-124.8402999999998
 20
-145.3639999999998
 30
0.0
 11
-124.5902999999998
 21
-145.3639999999998
 31
0.0
  0
LINE
  5
183
330
407
100
AcDbEntity
  8
DATA
  6
Continuous
 62
     7
100
AcDbLine
 10
-124.8402999999998
 20
-141.8639999999999
 30
0.0
 11
-124.5902999999998
 21
-141.8639999999999
 31
0.0
  0
ARC
  5
184
330
407
100
AcDbEntity
  8
DATA
  6
Continuous
 62
     7
100
AcDbCircle
 10
-124.8402999999998
 20
-143.6139999999999
 30
0.0
 40
1.75
100
AcDbArc
 50
90.0
 51
270.0
  0
LINE
  5
185
330
407
100
AcDbEntity
  8
DATA
  6
Continuous
 62
     7
100
AcDbLine
 10
-123.5952
 20
-139.8139999999999
 30
0.0
 11
-123.5952
 21
-138.8139999999999
 31
0.0
  0
LINE
  5
186
330
407
100
AcDbEntity
  8
DATA
  6
Continuous
 62
     7
100
AcDbLine
 10
-124.5902999999998
 20
-129.8139999999999
 30
0.0
 11
-124.5902999999998
 21
-138.8139999999999
 31
0.0
  0
LINE
  5
187
330
407
100
AcDbEntity
  8
DATA
  6
Continuous
 62
     7
100
AcDbLine
 10
-124.5902999999998
 20
-147.614
 30
0.0
 11
-124.5902999999998
 21
-139.8139999999999
 31
0.0
  0
LINE
  5
188
330
407
100
AcDbEntity
  8
DATA
  6
Continuous
 62
     7
100
AcDbLine
 10
-121.8451999999999
 20
-120.9439999999997
 30
0.0
 11
-121.8451999999999
 21
-112.5510781350932
 31
0.0
  0
LINE
  5
189
330
407
100
AcDbEntity
  8
DATA
  6
Continuous
 62
     7
100
AcDbLine
 10
-116.8452
 20
-120.9439999999997
 30
0.0
 11
-116.8452
 21
-109.9489218649067
 31
0.0
  0
ARC
  5
18A
330
407
100
AcDbEntity
  8
DATA
  6
Continuous
 62
     7
100
AcDbCircle
 10
-123.220812272067
 20
-106.8554687499999
 30
0.0
 40
5.859375000000028
100
AcDbArc
 50
228.5903778907288
 51
311.4096221092704
  0
ARC
  5
18B
330
407
100
AcDbEntity
  8
DATA
  6
Continuous
 62
     7
100
AcDbCircle
 10
-123.220812272067
 20
-103.7304687499999
 30
0.0
 40
5.859375000000028
100
AcDbArc
 50
228.5903778907288
 51
311.4096221092704
  0
LINE
  5
18C
330
407
100
AcDbEntity
  8
DATA
  6
Continuous
 62
     7
100
AcDbLine
 10
-114.8452
 20
-120.9439999999997
 30
0.0
 11
-114.1001000000001
 21
-129.8139999999999
 31
0.0
  0
LINE
  5
18D
330
407
100
AcDbEntity
  8
DATA
  6
Continuous
 62
     7
100
AcDbLine
 10
-115.0951999999999
 20
-156.25
 30
0.0
 11
-115.0951999999999
 21
-147.614
 31
0.0
  0
LINE
  5
18E
330
407
100
AcDbEntity
  8
DATA
  6
Continuous
 62
     7
100
AcDbLine
 10
-104.7499999999999
 20
-191.8540000000026
 30
0.0
 11
-104.7499999999999
 21
-196.8540000000026
 31
0.0
  0
LINE
  5
18F
330
407
100
AcDbEntity
  8
DATA
  6
Continuous
 62
     7
100
AcDbLine
 10
-104.7499999999999
 20
-191.8540000000026
 30
0.0
 11
-106.7499999999999
 21
-190.3540000000027
 31
0.0
  0
LINE
  5
190
330
407
100
AcDbEntity
  8
DATA
  6
Continuous
 62
     7
100
AcDbLine
 10
-104.7499999999999
 20
-196.8540000000026
 30
0.0
 11
-106.7499999999999
 21
-198.3540000000027
 31
0.0
  0
LINE
  5
191
330
407
100
AcDbEntity
  8
DATA
  6
Continuous
 62
     7
100
AcDbLine
 10
-115.0951999999999
 20
-139.8139999999999
 30
0.0
 11
-115.0951999999999
 21
-138.8139999999999
 31
0.0
  0
LINE
  5
192
330
407
100
AcDbEntity
  8
DATA
  6
Continuous
 62
     7
100
AcDbLine
 10
-114.1001000000001
 20
-138.8139999999999
 30
0.0
 11
-114.1001000000001
 21
-129.8139999999999
 31
0.0
  0
LINE
  5
193
330
407
100
AcDbEntity
  8
DATA
  6
Continuous
 62
     7
100
AcDbLine
 10
-114.1001000000001
 20
-147.614
 30
0.0
 11
-114.1001000000001
 21
-139.8139999999999
 31
0.0
  0
LINE
  5
194
330
407
100
AcDbEntity
  8
DATA
  6
Continuous
 62
     7
100
AcDbLine
 10
-68.50000000000001
 20
-186.3540000000044
 30
0.0
 11
-68.50000000000001
 21
-187.6040000000044
 31
0.0
  0
LINE
  5
195
330
407
100
AcDbEntity
  8
DATA
  6
Continuous
 62
     7
100
AcDbLine
 10
-70.25000000000012
 20
-188.8540000000044
 30
0.0
 11
-70.25000000000012
 21
-187.6040000000045
 31
0.0
  0
ARC
  5
196
330
407
100
AcDbEntity
  8
DATA
  6
Continuous
 62
     7
100
AcDbCircle
 10
-73.75000000000001
 20
-194.3540000000044
 30
0.0
 40
7.999999999999971
100
AcDbArc
 50
90.0
 51
180.0
  0
ARC
  5
197
330
407
100
AcDbEntity
  8
DATA
  6
Continuous
 62
     7
100
AcDbCircle
 10
-73.75000000000001
 20
-194.3540000000044
 30
0.0
 40
5.500000000000028
100
AcDbArc
 50
90.0
 51
180.0
  0
CIRCLE
  5
198
330
407
100
AcDbEntity
  8
DATA
  6
Continuous
 62
     7
100
AcDbCircle
 10
-73.00000000000024
 20
-194.3540000000044
 30
0.0
 40
4.0
  0
CIRCLE
  5
199
330
407
100
AcDbEntity
  8
DATA
  6
Continuous
 62
     7
100
AcDbCircle
 10
-73.00000000000024
 20
-194.3540000000044
 30
0.0
 40
2.5
  0
LINE
  5
19A
330
407
100
AcDbEntity
  8
DATA
  6
Continuous
 62
     7
100
AcDbLine
 10
-73.75000000000001
 20
-188.8540000000044
 30
0.0
 11
-70.25000000000012
 21
-188.8540000000044
 31
0.0
  0
CIRCLE
  5
19B
330
407
100
AcDbEntity
  8
DATA
  6
Continuous
 62
     7
100
AcDbCircle
 10
-67.75000000000002
 20
-208.3540000000044
 30
0.0
 40
4.5
  0
LINE
  5
19C
330
407
100
AcDbEntity
  8
DATA
  6
Continuous
 62
     7
100
AcDbLine
 10
-68.06999999999995
 20
-232.0434000000048
 30
0.0
 11
-68.06999999999995
 21
-230.8886000000049
 31
0.0
  0
LINE
  5
19D
330
407
100
AcDbEntity
  8
DATA
  6
Continuous
 62
     7
100
AcDbLine
 10
-72.56999999999995
 20
-232.0434000000048
 30
0.0
 11
-72.56999999999995
 21
-230.8886000000049
 31
0.0
  0
ARC
  5
19E
330
407
100
AcDbEntity
  8
DATA
  6
Continuous
 62
     7
100
AcDbCircle
 10
-70.31999999999995
 20
-228.5434000000048
 30
0.0
 40
3.249994000000045
100
AcDbArc
 50
313.8131579999999
 51
226.1868420000001
  0
ARC
  5
19F
330
407
100
AcDbEntity
  8
DATA
  6
Continuous
 62
     7
100
AcDbCircle
 10
-70.31999999999995
 20
-232.0434000000048
 30
0.0
 40
2.25
100
AcDbArc
 50
180.0
 51
0.0
  0
LINE
  5
1A0
330
407
100
AcDbEntity
  8
DATA
  6
Continuous
 62
     7
100
AcDbLine
 10
-204.2499999999999
 20
43.64599999999886
 30
0.0
 11
-145.7500000000001
 21
43.64599999999886
 31
0.0
  0
LINE
  5
1A1
330
407
100
AcDbEntity
  8
DATA
  6
Continuous
 62
     7
100
AcDbLine
 10
-151.7500000000001
 20
-13.99999999999994
 30
0.0
 11
-198.2499999999999
 21
-14.0
 31
0.0
  0
LINE
  5
1A2
330
407
100
AcDbEntity
  8
DATA
  6
Continuous
 62
     7
100
AcDbLine
 10
-198.75
 20
63.64599999999898
 30
0.0
 11
-151.2500000000001
 21
63.64599999999898
 31
0.0
  0
LINE
  5
1A3
330
407
100
AcDbEntity
  8
DATA
  6
Continuous
 62
     7
100
AcDbLine
 10
-160.3070678118655
 20
-24.99999999999995
 30
0.0
 11
-189.6929321881345
 21
-25.00000000000005
 31
0.0
  0
LINE
  5
1A4
330
407
100
AcDbEntity
  8
DATA
  6
Continuous
 62
     7
100
AcDbLine
 10
-160.9599349224705
 20
-22.99999999999995
 30
0.0
 11
-189.0400650775294
 21
-23.00000000000011
 31
0.0
  0
LINE
  5
1A5
330
407
100
AcDbEntity
  8
DATA
  6
Continuous
 62
     7
100
AcDbLine
 10
-156.674220636756
 20
-15.99999999999994
 30
0.0
 11
-193.3257793632437
 21
-16.0
 31
0.0
  0
LINE
  5
1A6
330
407
100
AcDbEntity
  8
DATA
  6
Continuous
 62
     7
100
AcDbLine
 10
-184.9999999999999
 20
-22.5
 30
0.0
 11
-164.9999999999999
 21
-22.50000000000005
 31
0.0
  0
LINE
  5
1A7
330
407
100
AcDbEntity
  8
DATA
  6
Continuous
 62
     7
100
AcDbLine
 10
-184.9999999999999
 20
-16.5
 30
0.0
 11
-164.9999999999999
 21
-16.5
 31
0.0
  0
ARC
  5
1A8
330
407
100
AcDbEntity
  8
DATA
  6
Continuous
 62
     7
100
AcDbCircle
 10
-171.1243877279326
 20
134.3554687500001
 30
0.0
 40
5.859375000000028
100
AcDbArc
 50
48.59037789072882
 51
131.4096221092703
  0
ARC
  5
1A9
330
407
100
AcDbEntity
  8
DATA
  6
Continuous
 62
     7
100
AcDbCircle
 10
-171.1243877279326
 20
137.4804687500002
 30
0.0
 40
5.859375000000028
100
AcDbArc
 50
48.59037789072882
 51
131.4096221092703
  0
LINE
  5
1AA
330
407
100
AcDbEntity
  8
DATA
  6
Continuous
 62
     7
100
AcDbLine
 10
-179.2499999999999
 20
93.75000000000021
 30
0.0
 11
-179.2499999999999
 21
102.3860000000003
 31
0.0
  0
LINE
  5
1AB
330
407
100
AcDbEntity
  8
DATA
  6
Continuous
 62
     7
100
AcDbLine
 10
-170.7499999999999
 20
93.75000000000021
 30
0.0
 11
-170.7499999999999
 21
102.3860000000003
 31
0.0
  0
LINE
  5
1AC
330
407
100
AcDbEntity
  8
DATA
  6
Continuous
 62
     7
100
AcDbLine
 10
-173.9999999999999
 20
93.75000000000021
 30
0.0
 11
-173.9999999999999
 21
102.3860000000003
 31
0.0
  0
LINE
  5
1AD
330
407
100
AcDbEntity
  8
DATA
  6
Continuous
 62
     7
100
AcDbLine
 10
-175.9999999999999
 20
93.75000000000021
 30
0.0
 11
-175.9999999999999
 21
102.3860000000003
 31
0.0
  0
LINE
  5
1AE
330
407
100
AcDbEntity
  8
DATA
  6
Continuous
 62
     7
100
AcDbLine
 10
-177.7499999999999
 20
99.58600000000046
 30
0.0
 11
-177.7499999999999
 21
101.5860000000004
 31
0.0
  0
LINE
  5
1AF
330
407
100
AcDbEntity
  8
DATA
  6
Continuous
 62
     7
100
AcDbLine
 10
-172.2500000000001
 20
101.5860000000004
 30
0.0
 11
-172.2500000000001
 21
99.58600000000011
 31
0.0
  0
TEXT
  5
1B0
330
407
100
AcDbEntity
  8
DATA
 62
     7
100
AcDbText
 10
-183.7217411308993
 20
-21.40412436548224
 30
0.0
 40
3.4375
  1
T O U C H
 41
0.7
 11
-183.7217411308993
 21
-17.96662436548223
 31
0.0
100
AcDbText
 73
     3
  0
ARC
  5
1B1
330
407
100
AcDbEntity
  8
DATA
  6
Continuous
 62
     7
100
AcDbCircle
 10
-192.9999999999999
 20
55.64599999999893
 30
0.0
 40
7.999999999999942
100
AcDbArc
 50
90.0
 51
180.0
  0
ARC
  5
1B2
330
407
100
AcDbEntity
  8
DATA
  6
Continuous
 62
     7
100
AcDbCircle
 10
-198.75
 20
55.64599999999893
 30
0.0
 40
7.999999999999942
100
AcDbArc
 50
90.0
 51
180.0
  0
LINE
  5
1B3
330
407
100
AcDbEntity
  8
DATA
  6
Continuous
 62
     7
100
AcDbLine
 10
-206.75
 20
-7.942932188134476
 30
0.0
 11
-206.75
 21
55.64599999999893
 31
0.0
  0
LINE
  5
1B4
330
407
100
AcDbEntity
  8
DATA
  6
Continuous
 62
     7
100
AcDbLine
 10
-204.2499999999999
 20
-8.000000000000056
 30
0.0
 11
-204.2499999999999
 21
43.64599999999886
 31
0.0
  0
LINE
  5
1B5
330
407
100
AcDbEntity
  8
DATA
  6
Continuous
 62
     7
100
AcDbLine
 10
-193.2284660940672
 20
-23.53553390593282
 30
0.0
 11
-205.2855339059326
 21
-11.4784660940673
 31
0.0
  0
ARC
  5
1B6
330
407
100
AcDbEntity
  8
DATA
  6
Continuous
 62
     7
100
AcDbCircle
 10
-193.3257793632437
 20
-16.99999999999995
 30
0.0
 40
1.0
100
AcDbArc
 50
90.0
 51
220.6012946450023
  0
ARC
  5
1B7
330
407
100
AcDbEntity
  8
DATA
  6
Continuous
 62
     7
100
AcDbCircle
 10
-201.75
 20
-7.942932188134476
 30
0.0
 40
5.0
100
AcDbArc
 50
180.0
 51
225.0000000000009
  0
ARC
  5
1B8
330
407
100
AcDbEntity
  8
DATA
  6
Continuous
 62
     7
100
AcDbCircle
 10
-198.2499999999999
 20
-8.000000000000056
 30
0.0
 40
6.0
100
AcDbArc
 50
180.0
 51
270.0000000000011
  0
ARC
  5
1B9
330
407
100
AcDbEntity
  8
DATA
  6
Continuous
 62
     7
100
AcDbCircle
 10
-189.0400650775294
 20
-22.00000000000011
 30
0.0
 40
1.000000000000007
100
AcDbArc
 50
220.6012946450023
 51
270.0
  0
ARC
  5
1BA
330
407
100
AcDbEntity
  8
DATA
  6
Continuous
 62
     7
100
AcDbCircle
 10
-189.6929321881345
 20
-20.0
 30
0.0
 40
4.99999999999992
100
AcDbArc
 50
225.0000000000004
 51
270.0
  0
LINE
  5
1BB
330
407
100
AcDbEntity
  8
DATA
  6
Continuous
 62
     7
100
AcDbLine
 10
-189.7993216798948
 20
-22.65079137345606
 30
0.0
 11
-194.085035965609
 21
-17.65079137345594
 31
0.0
  0
ARC
  5
1BC
330
407
100
AcDbEntity
  8
DATA
  6
Continuous
 62
     7
100
AcDbCircle
 10
-199.0
 20
45.64599999999893
 30
0.0
 40
2.0
100
AcDbArc
 50
180.0
 51
270.0
  0
LINE
  5
1BD
330
407
100
AcDbEntity
  8
DATA
  6
Continuous
 62
     7
100
AcDbLine
 10
-201.0
 20
45.64599999999893
 30
0.0
 11
-201.0
 21
55.64599999999893
 31
0.0
  0
ARC
  5
1BE
330
407
100
AcDbEntity
  8
DATA
  6
Continuous
 62
     7
100
AcDbCircle
 10
-184.9999999999999
 20
-19.50000000000005
 30
0.0
 40
3.0
100
AcDbArc
 50
90.0
 51
270.0
  0
CIRCLE
  5
1BF
330
407
100
AcDbEntity
  8
DATA
  6
Continuous
 62
     7
100
AcDbCircle
 10
-175.0000000000001
 20
50.64599999999903
 30
0.0
 40
1.25
  0
LINE
  5
1C0
330
407
100
AcDbEntity
  8
DATA
  6
Continuous
 62
     7
100
AcDbLine
 10
-179.2499999999999
 20
93.75000000000021
 30
0.0
 11
-170.7499999999999
 21
93.75000000000021
 31
0.0
  0
LINE
  5
1C1
330
407
100
AcDbEntity
  8
DATA
  6
Continuous
 62
     7
100
AcDbLine
 10
-177.7499999999999
 20
99.58600000000046
 30
0.0
 11
-175.9999999999999
 21
99.58600000000046
 31
0.0
  0
LINE
  5
1C2
330
407
100
AcDbEntity
  8
DATA
  6
Continuous
 62
     7
100
AcDbLine
 10
-173.9999999999999
 20
99.58600000000011
 30
0.0
 11
-172.2500000000001
 21
99.58600000000011
 31
0.0
  0
LINE
  5
1C3
330
407
100
AcDbEntity
  8
DATA
  6
Continuous
 62
     7
100
AcDbLine
 10
-179.5
 20
129.0560000000004
 30
0.0
 11
-180.2450999999996
 21
120.1860000000003
 31
0.0
  0
LINE
  5
1C4
330
407
100
AcDbEntity
  8
DATA
  6
Continuous
 62
     7
100
AcDbLine
 10
-170.4999999999999
 20
129.0560000000004
 30
0.0
 11
-169.7549000000001
 21
120.1860000000003
 31
0.0
  0
LINE
  5
1C5
330
407
100
AcDbEntity
  8
DATA
  6
Continuous
 62
     7
100
AcDbLine
 10
-177.7499999999999
 20
101.5860000000004
 30
0.0
 11
-175.9999999999999
 21
101.5860000000004
 31
0.0
  0
LINE
  5
1C6
330
407
100
AcDbEntity
  8
DATA
  6
Continuous
 62
     7
100
AcDbLine
 10
-173.9999999999999
 20
101.5860000000004
 30
0.0
 11
-172.2500000000001
 21
101.5860000000004
 31
0.0
  0
LINE
  5
1C7
330
407
100
AcDbEntity
  8
DATA
  6
Continuous
 62
     7
100
AcDbLine
 10
-180.2450999999996
 20
110.1860000000003
 30
0.0
 11
-169.7549000000001
 21
110.1860000000003
 31
0.0
  0
LINE
  5
1C8
330
407
100
AcDbEntity
  8
DATA
  6
Continuous
 62
     7
100
AcDbLine
 10
-180.2450999999996
 20
111.1860000000002
 30
0.0
 11
-169.7549000000001
 21
111.1860000000002
 31
0.0
  0
LINE
  5
1C9
330
407
100
AcDbEntity
  8
DATA
  6
Continuous
 62
     7
100
AcDbLine
 10
-180.2450999999996
 20
120.1860000000003
 30
0.0
 11
-169.7549000000001
 21
120.1860000000003
 31
0.0
  0
LINE
  5
1CA
330
407
100
AcDbEntity
  8
DATA
  6
Continuous
 62
     7
100
AcDbLine
 10
-180.2450999999996
 20
102.3860000000003
 30
0.0
 11
-180.2450999999996
 21
110.1860000000003
 31
0.0
  0
LINE
  5
1CB
330
407
100
AcDbEntity
  8
DATA
  6
Continuous
 62
     7
100
AcDbLine
 10
-180.2450999999996
 20
120.1860000000003
 30
0.0
 11
-180.2450999999996
 21
111.1860000000002
 31
0.0
  0
LINE
  5
1CC
330
407
100
AcDbEntity
  8
DATA
  6
Continuous
 62
     7
100
AcDbLine
 10
-179.2499999999999
 20
110.1860000000003
 30
0.0
 11
-179.2499999999999
 21
111.1860000000002
 31
0.0
  0
LINE
  5
1CD
330
407
100
AcDbEntity
  8
DATA
  6
Continuous
 62
     7
100
AcDbLine
 10
-169.7549000000001
 20
102.3860000000003
 30
0.0
 11
-169.7549000000001
 21
110.1860000000003
 31
0.0
  0
LINE
  5
1CE
330
407
100
AcDbEntity
  8
DATA
  6
Continuous
 62
     7
100
AcDbLine
 10
-169.7549000000001
 20
111.1860000000002
 30
0.0
 11
-169.7549000000001
 21
120.1860000000003
 31
0.0
  0
LINE
  5
1CF
330
407
100
AcDbEntity
  8
DATA
  6
Continuous
 62
     7
100
AcDbLine
 10
-170.7499999999999
 20
110.1860000000003
 30
0.0
 11
-170.7499999999999
 21
111.1860000000002
 31
0.0
  0
CIRCLE
  5
1D0
330
407
100
AcDbEntity
  8
DATA
  6
Continuous
 62
     7
100
AcDbCircle
 10
-174.9999999999999
 20
106.3860000000003
 30
0.0
 40
1.75
  0
LINE
  5
1D1
330
407
100
AcDbEntity
  8
DATA
  6
Continuous
 62
     7
100
AcDbLine
 10
-180.2450999999996
 20
102.3860000000003
 30
0.0
 11
-169.7549000000001
 21
102.3860000000003
 31
0.0
  0
LINE
  5
1D2
330
407
100
AcDbEntity
  8
DATA
  6
Continuous
 62
     7
100
AcDbLine
 10
-179.5
 20
129.0560000000004
 30
0.0
 11
-170.4999999999999
 21
129.0560000000004
 31
0.0
  0
ARC
  5
1D3
330
407
100
AcDbEntity
  8
DATA
  6
Continuous
 62
     7
100
AcDbCircle
 10
-178.8756122720671
 20
143.1445312500002
 30
0.0
 40
5.859374999999952
100
AcDbArc
 50
228.5903778907297
 51
311.4096221092712
  0
ARC
  5
1D4
330
407
100
AcDbEntity
  8
DATA
  6
Continuous
 62
     7
100
AcDbCircle
 10
-178.8756122720671
 20
146.2695312500002
 30
0.0
 40
5.859374999999952
100
AcDbArc
 50
228.5903778907297
 51
311.4096221092712
  0
LINE
  5
1D5
330
407
100
AcDbEntity
  8
DATA
  6
Continuous
 62
     7
100
AcDbLine
 10
-177.4999999999998
 20
129.0560000000004
 30
0.0
 11
-177.4999999999998
 21
137.4489218649068
 31
0.0
  0
LINE
  5
1D6
330
407
100
AcDbEntity
  8
DATA
  6
Continuous
 62
     7
100
AcDbLine
 10
-172.4999999999999
 20
129.0560000000004
 30
0.0
 11
-172.4999999999999
 21
140.0510781350934
 31
0.0
  0
ARC
  5
1D7
330
407
100
AcDbEntity
  8
DATA
  6
Continuous
 62
     7
100
AcDbCircle
 10
-114.6323868515147
 20
-12.50000000000011
 30
0.0
 40
1.000000000000028
100
AcDbArc
 50
206.5999534959456
 51
270.0
  0
ARC
  5
1D8
330
407
100
AcDbEntity
  8
DATA
  6
Continuous
 62
     7
100
AcDbCircle
 10
-125.2499999999999
 20
31.64599999999745
 30
0.0
 40
12.0
100
AcDbArc
 50
0.0
 51
90.0
  0
LINE
  5
1D9
330
407
100
AcDbEntity
  8
DATA
  6
Continuous
 62
     7
100
AcDbLine
 10
-129.8451999999999
 20
63.64599999999898
 30
0.0
 11
-106.7499999999999
 21
63.64599999999898
 31
0.0
  0
LINE
  5
1DA
330
407
100
AcDbEntity
  8
DATA
  6
Continuous
 62
     7
100
AcDbLine
 10
-123.5952
 20
98.25000000000022
 30
0.0
 11
-115.0951999999999
 21
98.25000000000022
 31
0.0
  0
LINE
  5
1DB
330
407
100
AcDbEntity
  8
DATA
  6
Continuous
 62
     7
100
AcDbLine
 10
-123.5952
 20
93.74999999999996
 30
0.0
 11
-115.0951999999999
 21
93.74999999999996
 31
0.0
  0
LINE
  5
1DC
330
407
100
AcDbEntity
  8
DATA
  6
Continuous
 62
     7
100
AcDbLine
 10
-124.5902999999998
 20
102.386
 30
0.0
 11
-114.1001000000001
 21
102.386
 31
0.0
  0
LINE
  5
1DD
330
407
100
AcDbEntity
  8
DATA
  6
Continuous
 62
     7
100
AcDbLine
 10
-124.5902999999998
 20
120.1860000000001
 30
0.0
 11
-114.1001000000001
 21
120.1860000000001
 31
0.0
  0
LINE
  5
1DE
330
407
100
AcDbEntity
  8
DATA
  6
Continuous
 62
     7
100
AcDbLine
 10
-124.5902999999998
 20
111.1860000000002
 30
0.0
 11
-114.1001000000001
 21
111.1860000000002
 31
0.0
  0
LINE
  5
1DF
330
407
100
AcDbEntity
  8
DATA
  6
Continuous
 62
     7
100
AcDbLine
 10
-124.5902999999998
 20
110.1860000000001
 30
0.0
 11
-114.1001000000001
 21
110.1860000000001
 31
0.0
  0
LINE
  5
1E0
330
407
100
AcDbEntity
  8
DATA
  6
Continuous
 62
     7
100
AcDbLine
 10
-123.8451999999999
 20
129.0560000000002
 30
0.0
 11
-114.8452
 21
129.0560000000002
 31
0.0
  0
ARC
  5
1E1
330
407
100
AcDbEntity
  8
DATA
  6
Continuous
 62
     7
100
AcDbCircle
 10
-115.4695877279325
 20
134.3554687500001
 30
0.0
 40
5.859374999999952
100
AcDbArc
 50
48.59037789072965
 51
131.4096221092712
  0
ARC
  5
1E2
330
407
100
AcDbEntity
  8
DATA
  6
Continuous
 62
     7
100
AcDbCircle
 10
-115.4695877279325
 20
137.4804687500002
 30
0.0
 40
5.859374999999952
100
AcDbArc
 50
48.59037789072965
 51
131.4096221092712
  0
LINE
  5
1E3
330
407
100
AcDbEntity
  8
DATA
  6
Continuous
 62
     7
100
AcDbLine
 10
-124.3902999999997
 20
101.3860000000001
 30
0.0
 11
-123.5952
 21
98.25000000000022
 31
0.0
  0
LINE
  5
1E4
330
407
100
AcDbEntity
  8
DATA
  6
Continuous
 62
     7
100
AcDbLine
 10
-123.7952000000001
 20
98.25000000000022
 30
0.0
 11
-124.5902999999998
 21
101.3860000000001
 31
0.0
  0
LINE
  5
1E5
330
407
100
AcDbEntity
  8
DATA
  6
Continuous
 62
     7
100
AcDbLine
 10
-122.5951999999999
 20
99.58600000000011
 30
0.0
 11
-122.5951999999999
 21
101.5860000000001
 31
0.0
  0
ARC
  5
1E6
330
407
100
AcDbEntity
  8
DATA
  6
Continuous
 62
     7
100
AcDbCircle
 10
-157.0
 20
55.64599999999893
 30
0.0
 40
8.0
100
AcDbArc
 50
0.0
 51
90.0
  0
ARC
  5
1E7
330
407
100
AcDbEntity
  8
DATA
  6
Continuous
 62
     7
100
AcDbCircle
 10
-151.2500000000001
 20
55.64599999999893
 30
0.0
 40
8.0
100
AcDbArc
 50
0.0
 51
90.0
  0
LINE
  5
1E8
330
407
100
AcDbEntity
  8
DATA
  6
Continuous
 62
     7
100
AcDbLine
 10
-131.8451999999999
 20
61.64599999999897
 30
0.0
 11
-131.8451999999999
 21
44.64599999999728
 31
0.0
  0
LINE
  5
1E9
330
407
100
AcDbEntity
  8
DATA
  6
Continuous
 62
     7
100
AcDbLine
 10
-143.2500000000001
 20
55.64599999999893
 30
0.0
 11
-143.2499999999999
 21
-7.942932188134476
 31
0.0
  0
LINE
  5
1EA
330
407
100
AcDbEntity
  8
DATA
  6
Continuous
 62
     7
100
AcDbLine
 10
-145.7500000000001
 20
43.64599999999886
 30
0.0
 11
-145.7500000000001
 21
-7.999999999999942
 31
0.0
  0
LINE
  5
1EB
330
407
100
AcDbEntity
  8
DATA
  6
Continuous
 62
     7
100
AcDbLine
 10
-115.5265414517768
 20
-12.94775836209942
 30
0.0
 11
-129.7393546002622
 21
15.43463119239231
 31
0.0
  0
LINE
  5
1EC
330
407
100
AcDbEntity
  8
DATA
  6
Continuous
 62
     7
100
AcDbLine
 10
-156.7715339059329
 20
-23.53553390593271
 30
0.0
 11
-144.7144660940674
 21
-11.4784660940673
 31
0.0
  0
ARC
  5
1ED
330
407
100
AcDbEntity
  8
DATA
  6
Continuous
 62
     7
100
AcDbCircle
 10
-160.9599349224705
 20
-22.0
 30
0.0
 40
1.0
100
AcDbArc
 50
270.0
 51
319.3987053549977
  0
ARC
  5
1EE
330
407
100
AcDbEntity
  8
DATA
  6
Continuous
 62
     7
100
AcDbCircle
 10
-160.3070678118655
 20
-19.99999999999994
 30
0.0
 40
5.0
100
AcDbArc
 50
270.0
 51
315.0
  0
ARC
  5
1EF
330
407
100
AcDbEntity
  8
DATA
  6
Continuous
 62
     7
100
AcDbCircle
 10
-151.7500000000001
 20
-7.999999999999942
 30
0.0
 40
6.0
100
AcDbArc
 50
270.0
 51
0.0
  0
ARC
  5
1F0
330
407
100
AcDbEntity
  8
DATA
  6
Continuous
 62
     7
100
AcDbCircle
 10
-148.25
 20
-7.942932188134476
 30
0.0
 40
5.00000000000004
100
AcDbArc
 50
315.0
 51
0.0
  0
ARC
  5
1F1
330
407
100
AcDbEntity
  8
DATA
  6
Continuous
 62
     7
100
AcDbCircle
 10
-156.674220636756
 20
-16.99999999999995
 30
0.0
 40
1.000000000000007
100
AcDbArc
 50
319.3987053549977
 51
90.0
  0
LINE
  5
1F2
330
407
100
AcDbEntity
  8
DATA
  6
Continuous
 62
     7
100
AcDbLine
 10
-160.2006783201051
 20
-22.65079137345589
 30
0.0
 11
-155.914964034391
 21
-17.65079137345594
 31
0.0
  0
ARC
  5
1F3
330
407
100
AcDbEntity
  8
DATA
  6
Continuous
 62
     7
100
AcDbCircle
 10
-151.0
 20
45.64599999999893
 30
0.0
 40
2.0
100
AcDbArc
 50
270.0
 51
0.0
  0
LINE
  5
1F4
330
407
100
AcDbEntity
  8
DATA
  6
Continuous
 62
     7
100
AcDbLine
 10
-149.0
 20
45.64599999999893
 30
0.0
 11
-149.0
 21
55.64599999999893
 31
0.0
  0
LINE
  5
1F5
330
407
100
AcDbEntity
  8
DATA
  6
Continuous
 62
     7
100
AcDbLine
 10
-129.8451999999999
 20
43.64599999999733
 30
0.0
 11
-129.8451999999999
 21
15.88238955449179
 31
0.0
  0
ARC
  5
1F6
330
407
100
AcDbEntity
  8
DATA
  6
Continuous
 62
     7
100
AcDbCircle
 10
-128.8452
 20
15.88238955449179
 30
0.0
 40
1.0
100
AcDbArc
 50
180.0
 51
206.5999534959456
  0
ARC
  5
1F7
330
407
100
AcDbEntity
  8
DATA
  6
Continuous
 62
     7
100
AcDbCircle
 10
-130.8452
 20
44.64599999999728
 30
0.0
 40
1.0
100
AcDbArc
 50
180.0
 51
270.0
  0
LINE
  5
1F8
330
407
100
AcDbEntity
  8
DATA
  6
Continuous
 62
     7
100
AcDbLine
 10
-130.8452
 20
43.64599999999733
 30
0.0
 11
-125.2499999999999
 21
43.64599999999733
 31
0.0
  0
ARC
  5
1F9
330
407
100
AcDbEntity
  8
DATA
  6
Continuous
 62
     7
100
AcDbCircle
 10
-164.9999999999999
 20
-19.50000000000005
 30
0.0
 40
3.0
100
AcDbArc
 50
270.0
 51
90.0
  0
ARC
  5
1FA
330
407
100
AcDbEntity
  8
DATA
  6
Continuous
 62
     7
100
AcDbCircle
 10
-131.56395
 20
50.64599999999903
 30
0.0
 40
1.281249999999975
100
AcDbArc
 50
102.6803834918148
 51
257.3196165081852
  0
ARC
  5
1FB
330
407
100
AcDbEntity
  8
DATA
  6
Continuous
 62
     7
100
AcDbCircle
 10
-129.8451999999999
 20
61.64599999999897
 30
0.0
 40
2.0
100
AcDbArc
 50
90.0
 51
180.0
  0
LINE
  5
1FC
330
407
100
AcDbEntity
  8
DATA
  6
Continuous
 62
     7
100
AcDbLine
 10
-123.5952
 20
93.74999999999996
 30
0.0
 11
-123.5952
 21
99.58600000000011
 31
0.0
  0
LINE
  5
1FD
330
407
100
AcDbEntity
  8
DATA
  6
Continuous
 62
     7
100
AcDbLine
 10
-122.5951999999999
 20
99.58600000000011
 30
0.0
 11
-123.5952
 21
99.58600000000011
 31
0.0
  0
LINE
  5
1FE
330
407
100
AcDbEntity
  8
DATA
  6
Continuous
 62
     7
100
AcDbLine
 10
-124.1258653150671
 20
94.27001013699664
 30
0.0
 11
-123.5952
 21
98.25000000000022
 31
0.0
  0
ARC
  5
1FF
330
407
100
AcDbEntity
  8
DATA
  6
Continuous
 62
     7
100
AcDbCircle
 10
-123.5952
 20
94.55000000000016
 30
0.0
 40
0.6000000000000303
100
AcDbArc
 50
207.8170447905761
 51
270.0
  0
LINE
  5
200
330
407
100
AcDbEntity
  8
DATA
  6
Continuous
 62
     7
100
AcDbLine
 10
-124.3305429987243
 20
94.23492750956802
 30
0.0
 11
-123.7952000000001
 21
98.25000000000022
 31
0.0
  0
ARC
  5
201
330
407
100
AcDbEntity
  8
DATA
  6
Continuous
 62
     7
100
AcDbCircle
 10
-123.5952
 20
94.55000000000016
 30
0.0
 40
0.8000000000000957
100
AcDbArc
 50
203.1936856657249
 51
270.0
  0
LINE
  5
202
330
407
100
AcDbEntity
  8
DATA
  6
Continuous
 62
     7
100
AcDbLine
 10
-123.8451999999999
 20
129.0560000000002
 30
0.0
 11
-124.5902999999998
 21
120.1860000000001
 31
0.0
  0
LINE
  5
203
330
407
100
AcDbEntity
  8
DATA
  6
Continuous
 62
     7
100
AcDbLine
 10
-123.5952
 20
101.5860000000001
 30
0.0
 11
-123.5952
 21
102.386
 31
0.0
  0
LINE
  5
204
330
407
100
AcDbEntity
  8
DATA
  6
Continuous
 62
     7
100
AcDbLine
 10
-124.5902999999998
 20
101.3860000000001
 30
0.0
 11
-124.3902999999997
 21
101.3860000000001
 31
0.0
  0
LINE
  5
205
330
407
100
AcDbEntity
  8
DATA
  6
Continuous
 62
     7
100
AcDbLine
 10
-122.5951999999999
 20
101.5860000000001
 30
0.0
 11
-123.5952
 21
101.5860000000001
 31
0.0
  0
LINE
  5
206
330
407
100
AcDbEntity
  8
DATA
  6
Continuous
 62
     7
100
AcDbLine
 10
-124.8402999999998
 20
104.6360000000001
 30
0.0
 11
-124.5902999999998
 21
104.6360000000001
 31
0.0
  0
LINE
  5
207
330
407
100
AcDbEntity
  8
DATA
  6
Continuous
 62
     7
100
AcDbLine
 10
-124.8402999999998
 20
108.1360000000002
 30
0.0
 11
-124.5902999999998
 21
108.1360000000002
 31
0.0
  0
ARC
  5
208
330
407
100
AcDbEntity
  8
DATA
  6
Continuous
 62
     7
100
AcDbCircle
 10
-124.8402999999998
 20
106.3860000000001
 30
0.0
 40
1.75
100
AcDbArc
 50
90.0
 51
270.0
  0
LINE
  5
209
330
407
100
AcDbEntity
  8
DATA
  6
Continuous
 62
     7
100
AcDbLine
 10
-123.5952
 20
110.1860000000001
 30
0.0
 11
-123.5952
 21
111.1860000000002
 31
0.0
  0
LINE
  5
20A
330
407
100
AcDbEntity
  8
DATA
  6
Continuous
 62
     7
100
AcDbLine
 10
-124.5902999999998
 20
120.1860000000001
 30
0.0
 11
-124.5902999999998
 21
111.1860000000002
 31
0.0
  0
LINE
  5
20B
330
407
100
AcDbEntity
  8
DATA
  6
Continuous
 62
     7
100
AcDbLine
 10
-124.5902999999998
 20
102.386
 30
0.0
 11
-124.5902999999998
 21
110.1860000000001
 31
0.0
  0
LINE
  5
20C
330
407
100
AcDbEntity
  8
DATA
  6
Continuous
 62
     7
100
AcDbLine
 10
-121.8451999999999
 20
129.0560000000002
 30
0.0
 11
-121.8451999999999
 21
137.4489218649068
 31
0.0
  0
LINE
  5
20D
330
407
100
AcDbEntity
  8
DATA
  6
Continuous
 62
     7
100
AcDbLine
 10
-116.8452
 20
129.0560000000002
 30
0.0
 11
-116.8452
 21
140.0510781350934
 31
0.0
  0
ARC
  5
20E
330
407
100
AcDbEntity
  8
DATA
  6
Continuous
 62
     7
100
AcDbCircle
 10
-123.220812272067
 20
143.1445312500002
 30
0.0
 40
5.859375000000028
100
AcDbArc
 50
228.5903778907288
 51
311.4096221092704
  0
ARC
  5
20F
330
407
100
AcDbEntity
  8
DATA
  6
Continuous
 62
     7
100
AcDbCircle
 10
-123.220812272067
 20
146.2695312500002
 30
0.0
 40
5.859375000000028
100
AcDbArc
 50
228.5903778907288
 51
311.4096221092704
  0
LINE
  5
210
330
407
100
AcDbEntity
  8
DATA
  6
Continuous
 62
     7
100
AcDbLine
 10
-115.0951999999999
 20
93.74999999999996
 30
0.0
 11
-115.0951999999999
 21
102.386
 31
0.0
  0
LINE
  5
211
330
407
100
AcDbEntity
  8
DATA
  6
Continuous
 62
     7
100
AcDbLine
 10
-106.7499999999999
 20
63.64599999999898
 30
0.0
 11
-106.7499999999999
 21
-25.00000000000005
 31
0.0
  0
LINE
  5
212
330
407
100
AcDbEntity
  8
DATA
  6
Continuous
 62
     7
100
AcDbLine
 10
-70.25000000000012
 20
61.14599999999586
 30
0.0
 11
-70.25000000000012
 21
62.39599999999557
 31
0.0
  0
ARC
  5
213
330
407
100
AcDbEntity
  8
DATA
  6
Continuous
 62
     7
100
AcDbCircle
 10
-73.75000000000001
 20
55.64599999999574
 30
0.0
 40
7.999999999999942
100
AcDbArc
 50
90.0
 51
180.0
  0
LINE
  5
214
330
407
100
AcDbEntity
  8
DATA
  6
Continuous
 62
     7
100
AcDbLine
 10
-113.2499999999999
 20
-14.5
 30
0.0
 11
-113.2499999999999
 21
31.64599999999745
 31
0.0
  0
LINE
  5
215
330
407
100
AcDbEntity
  8
DATA
  6
Continuous
 62
     7
100
AcDbLine
 10
-81.75000000000002
 20
-7.942932188137888
 30
0.0
 11
-81.75000000000002
 21
55.64599999999574
 31
0.0
  0
LINE
  5
216
330
407
100
AcDbEntity
  8
DATA
  6
Continuous
 62
     7
100
AcDbLine
 10
-79.25000000000001
 20
-7.855947340039678
 30
0.0
 11
-79.25000000000001
 21
55.64599999999574
 31
0.0
  0
ARC
  5
217
330
407
100
AcDbEntity
  8
DATA
  6
Continuous
 62
     7
100
AcDbCircle
 10
-109.4956985872456
 20
-24.0
 30
0.0
 40
0.9999999999999715
100
AcDbArc
 50
195.9453959009251
 51
270.0
  0
LINE
  5
218
330
407
100
AcDbEntity
  8
DATA
  6
Continuous
 62
     7
100
AcDbLine
 10
-109.4956985872456
 20
-25.00000000000005
 30
0.0
 11
-106.7499999999999
 21
-25.00000000000005
 31
0.0
  0
LINE
  5
219
330
407
100
AcDbEntity
  8
DATA
  6
Continuous
 62
     7
100
AcDbLine
 10
-113.2499999999999
 20
-13.50000000000005
 30
0.0
 11
-114.6323868515147
 21
-13.50000000000005
 31
0.0
  0
LINE
  5
21A
330
407
100
AcDbEntity
  8
DATA
  6
Continuous
 62
     7
100
AcDbLine
 10
-104.7499999999999
 20
-13.50000000000159
 30
0.0
 11
-104.7499999999999
 21
-18.50000000000159
 31
0.0
  0
LINE
  5
21B
330
407
100
AcDbEntity
  8
DATA
  6
Continuous
 62
     7
100
AcDbLine
 10
-106.7499999999999
 20
-12.00000000000164
 30
0.0
 11
-104.7499999999999
 21
-13.50000000000159
 31
0.0
  0
LINE
  5
21C
330
407
100
AcDbEntity
  8
DATA
  6
Continuous
 62
     7
100
AcDbLine
 10
-104.7499999999999
 20
-18.50000000000159
 30
0.0
 11
-106.7499999999999
 21
-20.00000000000165
 31
0.0
  0
ARC
  5
21D
330
407
100
AcDbEntity
  8
DATA
  6
Continuous
 62
     7
100
AcDbCircle
 10
-63.96511472882913
 20
-19.95000000000357
 30
0.0
 40
3.049999999999976
100
AcDbArc
 50
225.0000000000007
 51
270.0
  0
LINE
  5
21E
330
407
100
AcDbEntity
  8
DATA
  6
Continuous
 62
     7
100
AcDbLine
 10
-68.22846609406726
 20
-23.53553390593607
 30
0.0
 11
-80.28553390593264
 21
-11.47846609407054
 31
0.0
  0
ARC
  5
21F
330
407
100
AcDbEntity
  8
DATA
  6
Continuous
 62
     7
100
AcDbCircle
 10
-64.69293218813437
 20
-20.00000000000335
 30
0.0
 40
5.000000000000079
100
AcDbArc
 50
224.9999999999985
 51
270.0
  0
CIRCLE
  5
220
330
407
100
AcDbEntity
  8
DATA
  6
Continuous
 62
     7
100
AcDbCircle
 10
-66.00000000000001
 20
-16.00000000000329
 30
0.0
 40
4.0
  0
CIRCLE
  5
221
330
407
100
AcDbEntity
  8
DATA
  6
Continuous
 62
     7
100
AcDbCircle
 10
-66.00000000000001
 20
-16.00000000000329
 30
0.0
 40
2.5
  0
ARC
  5
222
330
407
100
AcDbEntity
  8
DATA
  6
Continuous
 62
     7
100
AcDbCircle
 10
-76.75000000000013
 20
-7.942932188137888
 30
0.0
 40
5.0
100
AcDbArc
 50
180.0
 51
225.0
  0
ARC
  5
223
330
407
100
AcDbEntity
  8
DATA
  6
Continuous
 62
     7
100
AcDbCircle
 10
-76.53999999999998
 20
-7.855947340039678
 30
0.0
 40
2.710000000000036
100
AcDbArc
 50
180.0
 51
224.9999999999983
  0
LINE
  5
224
330
407
100
AcDbEntity
  8
DATA
  6
Continuous
 62
     7
100
AcDbLine
 10
-66.12179041144819
 20
-22.10667568262249
 30
0.0
 11
-78.4562593770155
 21
-9.772206717055212
 31
0.0
  0
LINE
  5
225
330
407
100
AcDbEntity
  8
DATA
  6
Continuous
 62
     7
100
AcDbLine
 10
-104.7499999999999
 20
58.14599999999733
 30
0.0
 11
-104.7499999999999
 21
53.14599999999751
 31
0.0
  0
LINE
  5
226
330
407
100
AcDbEntity
  8
DATA
  6
Continuous
 62
     7
100
AcDbLine
 10
-104.7499999999999
 20
58.14599999999733
 30
0.0
 11
-106.7499999999999
 21
59.64599999999738
 31
0.0
  0
LINE
  5
227
330
407
100
AcDbEntity
  8
DATA
  6
Continuous
 62
     7
100
AcDbLine
 10
-104.7499999999999
 20
53.14599999999751
 30
0.0
 11
-106.7499999999999
 21
51.64599999999738
 31
0.0
  0
ARC
  5
228
330
407
100
AcDbEntity
  8
DATA
  6
Continuous
 62
     7
100
AcDbCircle
 10
-73.75000000000001
 20
55.64599999999574
 30
0.0
 40
5.5
100
AcDbArc
 50
90.0
 51
180.0
  0
CIRCLE
  5
229
330
407
100
AcDbEntity
  8
DATA
  6
Continuous
 62
     7
100
AcDbCircle
 10
-73.00000000000024
 20
55.64599999999574
 30
0.0
 40
4.0
  0
CIRCLE
  5
22A
330
407
100
AcDbEntity
  8
DATA
  6
Continuous
 62
     7
100
AcDbCircle
 10
-73.00000000000024
 20
55.64599999999574
 30
0.0
 40
2.5
  0
LINE
  5
22B
330
407
100
AcDbEntity
  8
DATA
  6
Continuous
 62
     7
100
AcDbLine
 10
-73.75000000000001
 20
61.14599999999586
 30
0.0
 11
-70.25000000000012
 21
61.14599999999586
 31
0.0
  0
LINE
  5
22C
330
407
100
AcDbEntity
  8
DATA
  6
Continuous
 62
     7
100
AcDbLine
 10
-113.2499999999999
 20
-14.5
 30
0.0
 11
-110.4572225348864
 21
-24.27472112789736
 31
0.0
  0
LINE
  5
22D
330
407
100
AcDbEntity
  8
DATA
  6
Continuous
 62
     7
100
AcDbLine
 10
-68.06999999999995
 20
17.95659999999514
 30
0.0
 11
-68.06999999999995
 21
19.11139999999516
 31
0.0
  0
LINE
  5
22E
330
407
100
AcDbEntity
  8
DATA
  6
Continuous
 62
     7
100
AcDbLine
 10
-72.56999999999995
 20
17.95659999999514
 30
0.0
 11
-72.56999999999995
 21
19.11139999999516
 31
0.0
  0
ARC
  5
22F
330
407
100
AcDbEntity
  8
DATA
  6
Continuous
 62
     7
100
AcDbCircle
 10
-70.31999999999995
 20
21.45659999999514
 30
0.0
 40
3.249994000000004
100
AcDbArc
 50
313.8131580000006
 51
226.1868419999994
  0
ARC
  5
230
330
407
100
AcDbEntity
  8
DATA
  6
Continuous
 62
     7
100
AcDbCircle
 10
-70.31999999999995
 20
17.95659999999514
 30
0.0
 40
2.25
100
AcDbArc
 50
180.0
 51
0.0
  0
LINE
  5
231
330
407
100
AcDbEntity
  8
DATA
  6
Continuous
 62
     7
100
AcDbLine
 10
-68.50000000000001
 20
63.64599999999569
 30
0.0
 11
-68.50000000000001
 21
62.39599999999569
 31
0.0
  0
LINE
  5
232
330
407
100
AcDbEntity
  8
DATA
  6
Continuous
 62
     7
100
AcDbLine
 10
-114.8452
 20
129.0560000000002
 30
0.0
 11
-114.1001000000001
 21
120.1860000000001
 31
0.0
  0
LINE
  5
233
330
407
100
AcDbEntity
  8
DATA
  6
Continuous
 62
     7
100
AcDbLine
 10
-115.0951999999999
 20
110.1860000000001
 30
0.0
 11
-115.0951999999999
 21
111.1860000000002
 31
0.0
  0
LINE
  5
234
330
407
100
AcDbEntity
  8
DATA
  6
Continuous
 62
     7
100
AcDbLine
 10
-114.1001000000001
 20
111.1860000000002
 30
0.0
 11
-114.1001000000001
 21
120.1860000000001
 31
0.0
  0
LINE
  5
235
330
407
100
AcDbEntity
  8
DATA
  6
Continuous
 62
     7
100
AcDbLine
 10
-114.1001000000001
 20
102.386
 30
0.0
 11
-114.1001000000001
 21
110.1860000000001
 31
0.0
  0
TEXT
  5
236
330
407
100
AcDbEntity
  8
DATA
 62
     7
100
AcDbText
 10
151.8161610243055
 20
-259.3637695312499
 30
0.0
 40
8.144205729166666
  1
スイッチ拡大図
 41
0.7
 72
     1
 11
175.0
 21
-255.2916666666666
 31
0.0
100
AcDbText
 73
     2
  0
LINE
  5
237
330
407
100
AcDbEntity
  8
DATA
  6
Continuous
 62
     7
100
AcDbLine
 10
137.5
 20
-262.5
 30
0.0
 11
212.5
 21
-262.5
 31
0.0
  0
LINE
  5
238
330
407
100
AcDbEntity
  8
DATA
  6
Continuous
 62
     7
100
AcDbLine
 10
-18.25000000000013
 20
-257.9429321881379
 30
0.0
 11
-18.25000000000013
 21
-194.3540000000044
 31
0.0
  0
LINE
  5
239
330
407
100
AcDbEntity
  8
DATA
  6
Continuous
 62
     7
100
AcDbLine
 10
-20.75000000000001
 20
-194.3540000000044
 30
0.0
 11
-20.75000000000001
 21
-257.8559473400396
 31
0.0
  0
LINE
  5
23A
330
407
100
AcDbEntity
  8
DATA
  6
Continuous
 62
     7
100
AcDbLine
 10
-31.77153390593277
 20
-273.5355339059361
 30
0.0
 11
-19.71446609406736
 21
-261.4784660940706
 31
0.0
  0
ARC
  5
23B
330
407
100
AcDbEntity
  8
DATA
  6
Continuous
 62
     7
100
AcDbCircle
 10
-36.03488527117067
 20
-269.9500000000033
 30
0.0
 40
3.050000000000011
100
AcDbArc
 50
270.0
 51
314.9999999999993
  0
ARC
  5
23C
330
407
100
AcDbEntity
  8
DATA
  6
Continuous
 62
     7
100
AcDbCircle
 10
-35.30706781186565
 20
-270.0000000000033
 30
0.0
 40
5.0
100
AcDbArc
 50
270.0
 51
314.9999999999991
  0
LINE
  5
23D
330
407
100
AcDbEntity
  8
DATA
  6
Continuous
 62
     7
100
AcDbLine
 10
-33.87820958855174
 20
-272.1066756826223
 30
0.0
 11
-21.54374062298463
 21
-259.7722067170552
 31
0.0
  0
LINE
  5
23E
330
407
100
AcDbEntity
  8
DATA
  6
Continuous
 62
     7
100
AcDbLine
 10
-59.00000000000002
 20
-260.0000000000034
 30
0.0
 11
-50.00000000000002
 21
-264.0000000000033
 31
0.0
  0
LINE
  5
23F
330
407
100
AcDbEntity
  8
DATA
  6
Continuous
 62
     7
100
AcDbLine
 10
-50.00000000000002
 20
-264.0000000000033
 30
0.0
 11
-41.00000000000001
 21
-260.0000000000033
 31
0.0
  0
LINE
  5
240
330
407
100
AcDbEntity
  8
DATA
  6
Continuous
 62
     7
100
AcDbLine
 10
-47.00000000000024
 20
-260.0000000000033
 30
0.0
 11
-41.00000000000001
 21
-260.0000000000033
 31
0.0
  0
LINE
  5
241
330
407
100
AcDbEntity
  8
DATA
  6
Continuous
 62
     7
100
AcDbLine
 10
-47.00000000000024
 20
-260.0000000000033
 30
0.0
 11
-47.00000000000024
 21
-254.5000000000034
 31
0.0
  0
LINE
  5
242
330
407
100
AcDbEntity
  8
DATA
  6
Continuous
 62
     7
100
AcDbLine
 10
-53.00000000000014
 20
-260.0000000000034
 30
0.0
 11
-53.00000000000014
 21
-254.5000000000033
 31
0.0
  0
LINE
  5
243
330
407
100
AcDbEntity
  8
DATA
  6
Continuous
 62
     7
100
AcDbLine
 10
-53.00000000000014
 20
-260.0000000000034
 30
0.0
 11
-59.00000000000002
 21
-260.0000000000034
 31
0.0
  0
CIRCLE
  5
244
330
407
100
AcDbEntity
  8
DATA
  6
Continuous
 62
     7
100
AcDbCircle
 10
-34.00000000000001
 20
-266.0000000000033
 30
0.0
 40
2.5
  0
CIRCLE
  5
245
330
407
100
AcDbEntity
  8
DATA
  6
Continuous
 62
     7
100
AcDbCircle
 10
-34.00000000000001
 20
-266.0000000000033
 30
0.0
 40
4.0
  0
LINE
  5
246
330
407
100
AcDbEntity
  8
DATA
  6
Continuous
 62
     7
100
AcDbLine
 10
-47.00000000000024
 20
-254.5000000000034
 30
0.0
 11
-53.00000000000014
 21
-254.5000000000033
 31
0.0
  0
ARC
  5
247
330
407
100
AcDbEntity
  8
DATA
  6
Continuous
 62
     7
100
AcDbCircle
 10
-23.25000000000024
 20
-257.9429321881379
 30
0.0
 40
4.99999999999992
100
AcDbArc
 50
314.9999999999996
 51
0.0
  0
ARC
  5
248
330
407
100
AcDbEntity
  8
DATA
  6
Continuous
 62
     7
100
AcDbCircle
 10
-23.46000000000005
 20
-257.8559473400396
 30
0.0
 40
2.709999999999987
100
AcDbArc
 50
315.0
 51
0.0
  0
TEXT
  5
249
330
407
100
AcDbEntity
  8
DATA
 62
     7
100
AcDbText
 10
-37.5
 20
-147.56
 30
0.0
 40
8.144205729166666
  1
Switchcraft TA3F
 41
0.7
 11
-37.5
 21
-139.4157942708333
 31
0.0
100
AcDbText
 73
     3
  0
LINE
  5
24A
330
407
100
AcDbEntity
  8
DATA
  6
Continuous
 62
     7
100
AcDbLine
 10
0.8276196682478484
 20
-97.14483344194331
 30
0.0
 11
19.99999999999988
 21
-100.5
 31
0.0
  0
LINE
  5
24B
330
407
100
AcDbEntity
  8
DATA
  6
Continuous
 62
     7
100
AcDbLine
 10
0.8276196682476211
 20
-87.85516655805663
 30
0.0
 11
19.99999999999988
 21
-84.49999999999993
 31
0.0
  0
LINE
  5
24C
330
407
100
AcDbEntity
  8
DATA
  6
Continuous
 62
     7
100
AcDbLine
 10
-45.50000000000014
 20
-120.944000000003
 30
0.0
 11
-44.75490000000037
 21
-129.8140000000031
 31
0.0
  0
LINE
  5
24D
330
407
100
AcDbEntity
  8
DATA
  6
Continuous
 62
     7
100
AcDbLine
 10
-54.50000000000002
 20
-120.944000000003
 30
0.0
 11
-55.24509999999988
 21
-129.8140000000031
 31
0.0
  0
LINE
  5
24E
330
407
100
AcDbEntity
  8
DATA
  6
Continuous
 62
     7
100
AcDbLine
 10
-45.75000000000001
 20
-156.2500000000033
 30
0.0
 11
-45.75000000000001
 21
-147.6140000000032
 31
0.0
  0
LINE
  5
24F
330
407
100
AcDbEntity
  8
DATA
  6
Continuous
 62
     7
100
AcDbLine
 10
-54.25000000000014
 20
-156.2500000000033
 30
0.0
 11
-54.25000000000014
 21
-147.6140000000032
 31
0.0
  0
ARC
  5
250
330
407
100
AcDbEntity
  8
DATA
  6
Continuous
 62
     7
100
AcDbCircle
 10
-26.25000000000013
 20
-194.3540000000044
 30
0.0
 40
8.0
100
AcDbArc
 50
0.0
 51
90.0
  0
ARC
  5
251
330
407
100
AcDbEntity
  8
DATA
  6
Continuous
 62
     7
100
AcDbCircle
 10
-26.25000000000013
 20
-194.3540000000044
 30
0.0
 40
5.5
100
AcDbArc
 50
0.0
 51
90.0
  0
LINE
  5
252
330
407
100
AcDbEntity
  8
DATA
  6
Continuous
 62
     7
100
AcDbLine
 10
-49.40000000000011
 20
-208.7040000000039
 30
0.0
 11
-50.59999999999992
 21
-208.7040000000039
 31
0.0
  0
LINE
  5
253
330
407
100
AcDbEntity
  8
DATA
  6
Continuous
 62
     7
100
AcDbLine
 10
-49.40000000000011
 20
-207.5040000000039
 30
0.0
 11
-49.40000000000011
 21
-208.7040000000039
 31
0.0
  0
LINE
  5
254
330
407
100
AcDbEntity
  8
DATA
  6
Continuous
 62
     7
100
AcDbLine
 10
-50.59999999999992
 20
-207.5040000000039
 30
0.0
 11
-49.40000000000011
 21
-207.5040000000039
 31
0.0
  0
LINE
  5
255
330
407
100
AcDbEntity
  8
DATA
  6
Continuous
 62
     7
100
AcDbLine
 10
-50.59999999999992
 20
-208.7040000000039
 30
0.0
 11
-50.59999999999992
 21
-207.5040000000039
 31
0.0
  0
LINE
  5
256
330
407
100
AcDbEntity
  8
DATA
  6
Continuous
 62
     7
100
AcDbLine
 10
-55.75000000000002
 20
-187.6040000000038
 30
0.0
 11
-54.91666666666721
 21
-186.3540000000044
 31
0.0
  0
LINE
  5
257
330
407
100
AcDbEntity
  8
DATA
  6
Continuous
 62
     7
100
AcDbLine
 10
-45.08333333333292
 20
-186.3540000000044
 30
0.0
 11
-44.25000000000014
 21
-187.6040000000038
 31
0.0
  0
CIRCLE
  5
258
330
407
100
AcDbEntity
  8
DATA
  6
Continuous
 62
     7
100
AcDbCircle
 10
-27.00000000000013
 20
-194.3540000000044
 30
0.0
 40
4.0
  0
CIRCLE
  5
259
330
407
100
AcDbEntity
  8
DATA
  6
Continuous
 62
     7
100
AcDbCircle
 10
-27.00000000000013
 20
-194.3540000000044
 30
0.0
 40
2.5
  0
LINE
  5
25A
330
407
100
AcDbEntity
  8
DATA
  6
Continuous
 62
     7
100
AcDbLine
 10
-29.75000000000024
 20
-188.8540000000044
 30
0.0
 11
-26.25000000000013
 21
-188.8540000000044
 31
0.0
  0
LINE
  5
25B
330
407
100
AcDbEntity
  8
DATA
  6
Continuous
 62
     7
100
AcDbLine
 10
-31.50000000000001
 20
-186.3540000000044
 30
0.0
 11
-31.50000000000001
 21
-187.6040000000043
 31
0.0
  0
LINE
  5
25C
330
407
100
AcDbEntity
  8
DATA
  6
Continuous
 62
     7
100
AcDbLine
 10
-29.75000000000024
 20
-188.8540000000044
 30
0.0
 11
-29.75000000000001
 21
-187.6040000000032
 31
0.0
  0
LINE
  5
25D
330
407
100
AcDbEntity
  8
DATA
  6
Continuous
 62
     7
100
AcDbLine
 10
-54.25000000000014
 20
-206.604000000004
 30
0.0
 11
-54.25000000000014
 21
-209.604000000004
 31
0.0
  0
LINE
  5
25E
330
407
100
AcDbEntity
  8
DATA
  6
Continuous
 62
     7
100
AcDbLine
 10
-54.25000000000014
 20
-209.604000000004
 30
0.0
 11
-45.75000000000001
 21
-209.6040000000036
 31
0.0
  0
LINE
  5
25F
330
407
100
AcDbEntity
  8
DATA
  6
Continuous
 62
     7
100
AcDbLine
 10
-45.75000000000001
 20
-206.6040000000037
 30
0.0
 11
-45.75000000000001
 21
-209.6040000000036
 31
0.0
  0
LINE
  5
260
330
407
100
AcDbEntity
  8
DATA
  6
Continuous
 62
     7
100
AcDbLine
 10
-54.25000000000014
 20
-206.604000000004
 30
0.0
 11
-45.75000000000001
 21
-206.6040000000037
 31
0.0
  0
LINE
  5
261
330
407
100
AcDbEntity
  8
DATA
  6
Continuous
 62
     7
100
AcDbLine
 10
-44.00000000000002
 20
-214.6040000000039
 30
0.0
 11
-43.00000000000024
 21
-213.1040000000039
 31
0.0
  0
LINE
  5
262
330
407
100
AcDbEntity
  8
DATA
  6
Continuous
 62
     7
100
AcDbLine
 10
-56.50000000000002
 20
-214.6040000000039
 30
0.0
 11
-57.50000000000014
 21
-213.1040000000039
 31
0.0
  0
LINE
  5
263
330
407
100
AcDbEntity
  8
DATA
  6
Continuous
 62
     7
100
AcDbLine
 10
-55.50000000000014
 20
-214.6040000000039
 30
0.0
 11
-56.50000000000002
 21
-214.6040000000039
 31
0.0
  0
LINE
  5
264
330
407
100
AcDbEntity
  8
DATA
  6
Continuous
 62
     7
100
AcDbLine
 10
-52.00000000000002
 20
-211.6040000000039
 30
0.0
 11
-54.00000000000002
 21
-211.6040000000039
 31
0.0
  0
LINE
  5
265
330
407
100
AcDbEntity
  8
DATA
  6
Continuous
 62
     7
100
AcDbLine
 10
-51.00000000000024
 20
-214.6040000000039
 30
0.0
 11
-49.00000000000024
 21
-214.6040000000039
 31
0.0
  0
CIRCLE
  5
266
330
407
100
AcDbEntity
  8
DATA
  6
Continuous
 62
     7
100
AcDbCircle
 10
-32.25000000000013
 20
-208.3540000000044
 30
0.0
 40
4.5
  0
LINE
  5
267
330
407
100
AcDbEntity
  8
DATA
  6
Continuous
 62
     7
100
AcDbLine
 10
-50.00000000000002
 20
-209.6040000000039
 30
0.0
 11
-50.00000000000002
 21
-211.6040000000039
 31
0.0
  0
LINE
  5
268
330
407
100
AcDbEntity
  8
DATA
  6
Continuous
 62
     7
100
AcDbLine
 10
-52.00000000000002
 20
-209.6040000000039
 30
0.0
 11
-52.00000000000002
 21
-211.6040000000039
 31
0.0
  0
LINE
  5
269
330
407
100
AcDbEntity
  8
DATA
  6
Continuous
 62
     7
100
AcDbLine
 10
-48.00000000000002
 20
-209.6040000000039
 30
0.0
 11
-48.00000000000002
 21
-211.6040000000039
 31
0.0
  0
LINE
  5
26A
330
407
100
AcDbEntity
  8
DATA
  6
Continuous
 62
     7
100
AcDbLine
 10
-54.25000000000014
 20
-156.2500000000033
 30
0.0
 11
-45.75000000000001
 21
-156.2500000000033
 31
0.0
  0
LINE
  5
26B
330
407
100
AcDbEntity
  8
DATA
  6
Continuous
 62
     7
100
AcDbLine
 10
-55.24509999999988
 20
-147.6140000000032
 30
0.0
 11
-44.75490000000037
 21
-147.6140000000032
 31
0.0
  0
LINE
  5
26C
330
407
100
AcDbEntity
  8
DATA
  6
Continuous
 62
     7
100
AcDbLine
 10
-45.75000000000001
 20
-139.8140000000032
 30
0.0
 11
-45.75000000000001
 21
-138.8140000000032
 31
0.0
  0
LINE
  5
26D
330
407
100
AcDbEntity
  8
DATA
  6
Continuous
 62
     7
100
AcDbLine
 10
-44.75490000000037
 20
-138.8140000000032
 30
0.0
 11
-44.75490000000037
 21
-129.8140000000031
 31
0.0
  0
LINE
  5
26E
330
407
100
AcDbEntity
  8
DATA
  6
Continuous
 62
     7
100
AcDbLine
 10
-44.75490000000037
 20
-147.6140000000032
 30
0.0
 11
-44.75490000000037
 21
-139.8140000000032
 31
0.0
  0
LINE
  5
26F
330
407
100
AcDbEntity
  8
DATA
  6
Continuous
 62
     7
100
AcDbLine
 10
-54.25000000000014
 20
-139.8140000000032
 30
0.0
 11
-54.25000000000014
 21
-138.8140000000032
 31
0.0
  0
LINE
  5
270
330
407
100
AcDbEntity
  8
DATA
  6
Continuous
 62
     7
100
AcDbLine
 10
-55.24509999999988
 20
-129.8140000000031
 30
0.0
 11
-55.24509999999988
 21
-138.8140000000032
 31
0.0
  0
LINE
  5
271
330
407
100
AcDbEntity
  8
DATA
  6
Continuous
 62
     7
100
AcDbLine
 10
-55.24509999999988
 20
-147.6140000000032
 30
0.0
 11
-55.24509999999988
 21
-139.8140000000032
 31
0.0
  0
LINE
  5
272
330
407
100
AcDbEntity
  8
DATA
  6
Continuous
 62
     7
100
AcDbLine
 10
-55.24509999999988
 20
-138.8140000000032
 30
0.0
 11
-44.75490000000037
 21
-138.8140000000032
 31
0.0
  0
LINE
  5
273
330
407
100
AcDbEntity
  8
DATA
  6
Continuous
 62
     7
100
AcDbLine
 10
-55.24509999999988
 20
-139.8140000000032
 30
0.0
 11
-44.75490000000037
 21
-139.8140000000032
 31
0.0
  0
TEXT
  5
274
330
407
100
AcDbEntity
  8
DATA
 62
     7
100
AcDbText
 10
-37.5
 20
-133.1563541666667
 30
0.0
 40
8.144205729166666
  1
コネクター
 41
0.7
 11
-37.5
 21
-125.0121484375001
 31
0.0
100
AcDbText
 73
     3
  0
LINE
  5
275
330
407
100
AcDbEntity
  8
DATA
  6
Continuous
 62
     7
100
AcDbLine
 10
-27.43000000000008
 20
-232.0434000000048
 30
0.0
 11
-27.43000000000008
 21
-230.8886000000049
 31
0.0
  0
LINE
  5
276
330
407
100
AcDbEntity
  8
DATA
  6
Continuous
 62
     7
100
AcDbLine
 10
-31.93000000000031
 20
-232.0434000000048
 30
0.0
 11
-31.93000000000031
 21
-230.8886000000049
 31
0.0
  0
ARC
  5
277
330
407
100
AcDbEntity
  8
DATA
  6
Continuous
 62
     7
100
AcDbCircle
 10
-29.68000000000008
 20
-228.5434000000048
 30
0.0
 40
3.249993999999966
100
AcDbArc
 50
313.8131579999984
 51
226.1868419999987
  0
ARC
  5
278
330
407
100
AcDbEntity
  8
DATA
  6
Continuous
 62
     7
100
AcDbCircle
 10
-29.68000000000008
 20
-232.0434000000048
 30
0.0
 40
2.25
100
AcDbArc
 50
180.0
 51
0.0
  0
LINE
  5
279
330
407
100
AcDbEntity
  8
DATA
  6
Continuous
 62
     7
100
AcDbLine
 10
-43.00000000000024
 20
-228.5434000000048
 30
0.0
 11
-32.9299940000001
 21
-228.5434000000048
 31
0.0
  0
LINE
  5
27A
330
407
100
AcDbEntity
  8
DATA
  6
Continuous
 62
     7
100
AcDbLine
 10
-55.24509999999988
 20
-129.8140000000031
 30
0.0
 11
-44.75490000000037
 21
-129.8140000000031
 31
0.0
  0
CIRCLE
  5
27B
330
407
100
AcDbEntity
  8
DATA
  6
Continuous
 62
     7
100
AcDbCircle
 10
-50.00000000000002
 20
-198.6222000000042
 30
0.0
 40
2.75
  0
CIRCLE
  5
27C
330
407
100
AcDbEntity
  8
DATA
  6
Continuous
 62
     7
100
AcDbCircle
 10
-50.00000000000002
 20
-198.6222000000042
 30
0.0
 40
6.5
  0
LINE
  5
27D
330
407
100
AcDbEntity
  8
DATA
  6
Continuous
 62
     7
100
AcDbLine
 10
-54.50000000000002
 20
-120.944000000003
 30
0.0
 11
-45.50000000000014
 21
-120.944000000003
 31
0.0
  0
ARC
  5
27E
330
407
100
AcDbEntity
  8
DATA
  6
Continuous
 62
     7
100
AcDbCircle
 10
-46.12438772793257
 20
-115.6445312500032
 30
0.0
 40
5.859374999999952
100
AcDbArc
 50
48.59037789072965
 51
131.4096221092712
  0
ARC
  5
27F
330
407
100
AcDbEntity
  8
DATA
  6
Continuous
 62
     7
100
AcDbCircle
 10
-46.12438772793257
 20
-112.5195312500032
 30
0.0
 40
5.859374999999952
100
AcDbArc
 50
48.59037789072965
 51
131.4096221092712
  0
ARC
  5
280
330
407
100
AcDbEntity
  8
DATA
  6
Continuous
 62
     7
100
AcDbCircle
 10
-53.87561227206722
 20
-106.8554687500032
 30
0.0
 40
5.859374999999952
100
AcDbArc
 50
228.5903778907297
 51
311.4096221092712
  0
ARC
  5
281
330
407
100
AcDbEntity
  8
DATA
  6
Continuous
 62
     7
100
AcDbCircle
 10
-53.87561227206722
 20
-103.7304687500032
 30
0.0
 40
5.859374999999952
100
AcDbArc
 50
228.5903778907297
 51
311.4096221092712
  0
LINE
  5
282
330
407
100
AcDbEntity
  8
DATA
  6
Continuous
 62
     7
100
AcDbLine
 10
-52.50000000000002
 20
-120.944000000003
 30
0.0
 11
-52.50000000000002
 21
-112.5510781350966
 31
0.0
  0
LINE
  5
283
330
407
100
AcDbEntity
  8
DATA
  6
Continuous
 62
     7
100
AcDbLine
 10
-47.50000000000002
 20
-120.944000000003
 30
0.0
 11
-47.50000000000002
 21
-109.94892186491
 31
0.0
  0
ARC
  5
284
330
407
100
AcDbEntity
  8
DATA
  6
Continuous
 62
     7
100
AcDbCircle
 10
-42.49999999999991
 20
-100.0
 30
0.0
 40
10.0
100
AcDbArc
 50
90.0
 51
180.0
  0
ARC
  5
285
330
407
100
AcDbEntity
  8
DATA
  6
Continuous
 62
     7
100
AcDbCircle
 10
-42.50000000000013
 20
-100.0
 30
0.0
 40
5.0
100
AcDbArc
 50
90.0
 51
180.0
  0
LINE
  5
286
330
407
100
AcDbEntity
  8
DATA
  6
Continuous
 62
     7
100
AcDbLine
 10
-0.0000000000001137
 20
-88.84019702521229
 30
0.0
 11
0.0000000000001137
 21
-96.15980297478756
 31
0.0
  0
ARC
  5
287
330
407
100
AcDbEntity
  8
DATA
  6
Continuous
 62
     7
100
AcDbCircle
 10
1.000000000000113
 20
-96.15980297478756
 30
0.0
 40
1.0
100
AcDbArc
 50
180.0
 51
260.0737544933473
  0
ARC
  5
288
330
407
100
AcDbEntity
  8
DATA
  6
Continuous
 62
     7
100
AcDbCircle
 10
1.000000000000113
 20
-88.84019702521229
 30
0.0
 40
0.9999999999999944
100
AcDbArc
 50
99.92624550665272
 51
180.0
  0
LINE
  5
289
330
407
100
AcDbEntity
  8
DATA
  6
Continuous
 62
     7
100
AcDbLine
 10
-42.49999999999991
 20
-90.0
 30
0.0
 11
0.0
 21
-90.00000000000005
 31
0.0
  0
LINE
  5
28A
330
407
100
AcDbEntity
  8
DATA
  6
Continuous
 62
     7
100
AcDbLine
 10
-42.50000000000013
 20
-95.0
 30
0.0
 11
0.0000000000001137
 21
-95.0000000000001
 31
0.0
  0
LINE
  5
28B
330
407
100
AcDbEntity
  8
DATA
  6
Continuous
 62
     7
100
AcDbLine
 10
-52.49999999999989
 20
-109.4260781350965
 30
0.0
 11
-52.49999999999989
 21
-100.0
 31
0.0
  0
LINE
  5
28C
330
407
100
AcDbEntity
  8
DATA
  6
Continuous
 62
     7
100
AcDbLine
 10
-47.50000000000002
 20
-106.8239218649099
 30
0.0
 11
-47.50000000000002
 21
-100.0
 31
0.0
  0
LINE
  5
28D
330
407
100
AcDbEntity
  8
DATA
  6
Continuous
 62
     7
100
AcDbLine
 10
37.00000000000011
 20
-102.0
 30
0.0
 11
20.50000000000011
 21
-101.0
 31
0.0
  0
LINE
  5
28E
330
407
100
AcDbEntity
  8
DATA
  6
Continuous
 62
     7
100
AcDbLine
 10
20.50000000000011
 20
-83.99999999999998
 30
0.0
 11
37.00000000000011
 21
-82.99999999999988
 31
0.0
  0
LINE
  5
28F
330
407
100
AcDbEntity
  8
DATA
  6
Continuous
 62
     7
100
AcDbLine
 10
20.50000000000011
 20
-83.99999999999998
 30
0.0
 11
20.50000000000011
 21
-101.0
 31
0.0
  0
LINE
  5
290
330
407
100
AcDbEntity
  8
DATA
  6
Continuous
 62
     7
100
AcDbLine
 10
19.99999999999988
 20
-84.49999999999993
 30
0.0
 11
19.99999999999988
 21
-100.5
 31
0.0
  0
LINE
  5
291
330
407
100
AcDbEntity
  8
DATA
  6
Continuous
 62
     7
100
AcDbLine
 10
17.00000000000011
 20
-85.0249999999999
 30
0.0
 11
17.00000000000011
 21
-99.97499999999996
 31
0.0
  0
LINE
  5
292
330
407
100
AcDbEntity
  8
DATA
  6
Continuous
 62
     7
100
AcDbLine
 10
9.437000000000013
 20
-98.44522499999998
 30
0.0
 11
9.437000000000013
 21
-86.55477499999998
 31
0.0
  0
LINE
  5
293
330
407
100
AcDbEntity
  8
DATA
  6
Continuous
 62
     7
100
AcDbLine
 10
9.937000000000239
 20
-98.44522499999998
 30
0.0
 11
9.937000000000239
 21
-86.55477499999998
 31
0.0
  0
LINE
  5
294
330
407
100
AcDbEntity
  8
DATA
  6
Continuous
 62
     7
100
AcDbLine
 10
11.76600000000019
 20
-98.76529999999997
 30
0.0
 11
11.76600000000019
 21
-86.2346999999999
 31
0.0
  0
LINE
  5
295
330
407
100
AcDbEntity
  8
DATA
  6
Continuous
 62
     7
100
AcDbLine
 10
11.26600000000019
 20
-98.76529999999997
 30
0.0
 11
11.26600000000019
 21
-86.2346999999999
 31
0.0
  0
LINE
  5
296
330
407
100
AcDbEntity
  8
DATA
  6
Continuous
 62
     7
100
AcDbLine
 10
13.09500000000025
 20
-99.08537499999999
 30
0.0
 11
13.09500000000025
 21
-85.91462499999995
 31
0.0
  0
LINE
  5
297
330
407
100
AcDbEntity
  8
DATA
  6
Continuous
 62
     7
100
AcDbLine
 10
13.59500000000014
 20
-99.08537499999999
 30
0.0
 11
13.59500000000014
 21
-85.91462499999995
 31
0.0
  0
LINE
  5
298
330
407
100
AcDbEntity
  8
DATA
  6
Continuous
 62
     7
100
AcDbLine
 10
14.92400000000009
 20
-99.40544999999991
 30
0.0
 11
14.92400000000009
 21
-85.59454999999996
 31
0.0
  0
LINE
  5
299
330
407
100
AcDbEntity
  8
DATA
  6
Continuous
 62
     7
100
AcDbLine
 10
15.42400000000032
 20
-99.40544999999991
 30
0.0
 11
15.42400000000032
 21
-85.59454999999996
 31
0.0
  0
ARC
  5
29A
330
407
100
AcDbEntity
  8
DATA
  6
Continuous
 62
     7
100
AcDbCircle
 10
7.858000000000062
 20
-98.12514999999986
 30
0.0
 40
0.25
100
AcDbArc
 50
180.0
 51
0.0
  0
ARC
  5
29B
330
407
100
AcDbEntity
  8
DATA
  6
Continuous
 62
     7
100
AcDbCircle
 10
9.687000000000125
 20
-98.44522499999998
 30
0.0
 40
0.25
100
AcDbArc
 50
180.0
 51
0.0
  0
ARC
  5
29C
330
407
100
AcDbEntity
  8
DATA
  6
Continuous
 62
     7
100
AcDbCircle
 10
11.51600000000019
 20
-98.76529999999997
 30
0.0
 40
0.25
100
AcDbArc
 50
180.0
 51
0.0
  0
ARC
  5
29D
330
407
100
AcDbEntity
  8
DATA
  6
Continuous
 62
     7
100
AcDbCircle
 10
13.34500000000014
 20
-99.08537499999999
 30
0.0
 40
0.25
100
AcDbArc
 50
180.0
 51
0.0
  0
ARC
  5
29E
330
407
100
AcDbEntity
  8
DATA
  6
Continuous
 62
     7
100
AcDbCircle
 10
15.17400000000009
 20
-99.40544999999991
 30
0.0
 40
0.25
100
AcDbArc
 50
180.0
 51
0.0
  0
LINE
  5
29F
330
407
100
AcDbEntity
  8
DATA
  6
Continuous
 62
     7
100
AcDbLine
 10
19.99999999999988
 20
-98.49999999999999
 30
0.0
 11
20.50000000000011
 21
-98.49999999999999
 31
0.0
  0
LINE
  5
2A0
330
407
100
AcDbEntity
  8
DATA
  6
Continuous
 62
     7
100
AcDbLine
 10
7.608000000000062
 20
-98.12514999999986
 30
0.0
 11
7.608000000000062
 21
-86.87484999999997
 31
0.0
  0
LINE
  5
2A1
330
407
100
AcDbEntity
  8
DATA
  6
Continuous
 62
     7
100
AcDbLine
 10
8.108000000000174
 20
-98.12514999999986
 30
0.0
 11
8.108000000000174
 21
-86.87484999999997
 31
0.0
  0
ARC
  5
2A2
330
407
100
AcDbEntity
  8
DATA
  6
Continuous
 62
     7
100
AcDbCircle
 10
6.028999999999996
 20
-97.80507499999991
 30
0.0
 40
0.25
100
AcDbArc
 50
180.0
 51
0.0
  0
LINE
  5
2A3
330
407
100
AcDbEntity
  8
DATA
  6
Continuous
 62
     7
100
AcDbLine
 10
4.199999999999931
 20
-97.73500000000002
 30
0.0
 11
4.199999999999931
 21
-87.26499999999996
 31
0.0
  0
LINE
  5
2A4
330
407
100
AcDbEntity
  8
DATA
  6
Continuous
 62
     7
100
AcDbLine
 10
5.77900000000011
 20
-97.80507499999991
 30
0.0
 11
5.77900000000011
 21
-87.19492499999994
 31
0.0
  0
LINE
  5
2A5
330
407
100
AcDbEntity
  8
DATA
  6
Continuous
 62
     7
100
AcDbLine
 10
6.27900000000011
 20
-97.80507499999991
 30
0.0
 11
6.27900000000011
 21
-87.19492499999994
 31
0.0
  0
ARC
  5
2A6
330
407
100
AcDbEntity
  8
DATA
  6
Continuous
 62
     7
100
AcDbCircle
 10
6.028999999999996
 20
-87.19492499999994
 30
0.0
 40
0.25
100
AcDbArc
 50
0.0
 51
180.0
  0
ARC
  5
2A7
330
407
100
AcDbEntity
  8
DATA
  6
Continuous
 62
     7
100
AcDbCircle
 10
7.858000000000062
 20
-86.87484999999997
 30
0.0
 40
0.25
100
AcDbArc
 50
0.0
 51
180.0
  0
ARC
  5
2A8
330
407
100
AcDbEntity
  8
DATA
  6
Continuous
 62
     7
100
AcDbCircle
 10
9.687000000000125
 20
-86.55477499999998
 30
0.0
 40
0.25
100
AcDbArc
 50
0.0
 51
180.0
  0
ARC
  5
2A9
330
407
100
AcDbEntity
  8
DATA
  6
Continuous
 62
     7
100
AcDbCircle
 10
11.51600000000019
 20
-86.2346999999999
 30
0.0
 40
0.25
100
AcDbArc
 50
0.0
 51
180.0
  0
ARC
  5
2AA
330
407
100
AcDbEntity
  8
DATA
  6
Continuous
 62
     7
100
AcDbCircle
 10
13.34500000000036
 20
-85.91462499999995
 30
0.0
 40
0.25
100
AcDbArc
 50
0.0
 51
180.0
  0
ARC
  5
2AB
330
407
100
AcDbEntity
  8
DATA
  6
Continuous
 62
     7
100
AcDbCircle
 10
15.17400000000009
 20
-85.59454999999996
 30
0.0
 40
0.25
100
AcDbArc
 50
0.0
 51
180.0
  0
LINE
  5
2AC
330
407
100
AcDbEntity
  8
DATA
  6
Continuous
 62
     7
100
AcDbLine
 10
19.99999999999988
 20
-86.49999999999995
 30
0.0
 11
20.50000000000011
 21
-86.49999999999995
 31
0.0
  0
LINE
  5
2AD
330
407
100
AcDbEntity
  8
DATA
  6
Continuous
 62
     7
100
AcDbLine
 10
77.00000000000009
 20
-101.75
 30
0.0
 11
37.00000000000011
 21
-101.75
 31
0.0
  0
LINE
  5
2AE
330
407
100
AcDbEntity
  8
DATA
  6
Continuous
 62
     7
100
AcDbLine
 10
37.00000000000011
 20
-83.24999999999993
 30
0.0
 11
77.00000000000009
 21
-83.24999999999993
 31
0.0
  0
LINE
  5
2AF
330
407
100
AcDbEntity
  8
DATA
  6
Continuous
 62
     7
100
AcDbLine
 10
37.00000000000011
 20
-82.99999999999988
 30
0.0
 11
37.00000000000011
 21
-102.0
 31
0.0
  0
LINE
  5
2B0
330
407
100
AcDbEntity
  8
DATA
  6
Continuous
 62
     7
100
AcDbLine
 10
77.00000000000009
 20
-83.24999999999993
 30
0.0
 11
77.00000000000009
 21
-101.75
 31
0.0
  0
LINE
  5
2B1
330
407
100
AcDbEntity
  8
DATA
  6
Continuous
 62
     7
100
AcDbLine
 10
75.99999999999987
 20
-89.49999999999993
 30
0.0
 11
75.99999999999987
 21
-95.49999999999995
 31
0.0
  0
LINE
  5
2B2
330
407
100
AcDbEntity
  8
DATA
  6
Continuous
 62
     7
100
AcDbLine
 10
73.5000000000001
 20
-89.49999999999993
 30
0.0
 11
73.5000000000001
 21
-95.49999999999995
 31
0.0
  0
LINE
  5
2B3
330
407
100
AcDbEntity
  8
DATA
  6
Continuous
 62
     7
100
AcDbLine
 10
75.99999999999987
 20
-95.49999999999995
 30
0.0
 11
73.5000000000001
 21
-95.49999999999995
 31
0.0
  0
LINE
  5
2B4
330
407
100
AcDbEntity
  8
DATA
  6
Continuous
 62
     7
100
AcDbLine
 10
75.99999999999987
 20
-89.49999999999993
 30
0.0
 11
73.5000000000001
 21
-89.49999999999993
 31
0.0
  0
TEXT
  5
2B5
330
407
100
AcDbEntity
  8
DATA
 62
     7
100
AcDbText
 10
151.8161610243055
 20
-15.61376953124999
 30
0.0
 40
8.144205729166666
  1
スイッチ拡大図
 41
0.7
 72
     1
 11
175.0
 21
-11.54166666666666
 31
0.0
100
AcDbText
 73
     2
  0
LINE
  5
2B6
330
407
100
AcDbEntity
  8
DATA
  6
Continuous
 62
     7
100
AcDbLine
 10
137.5
 20
-18.75
 30
0.0
 11
212.5
 21
-18.75
 31
0.0
  0
TEXT
  5
2B7
330
407
100
AcDbEntity
  8
DATA
 62
     7
100
AcDbText
 10
-37.5
 20
102.44
 30
0.0
 40
8.144205729166666
  1
Switchcraft TA3F
 41
0.7
 11
-37.5
 21
110.5842057291667
 31
0.0
100
AcDbText
 73
     3
  0
LINE
  5
2B8
330
407
100
AcDbEntity
  8
DATA
  6
Continuous
 62
     7
100
AcDbLine
 10
0.8276196682478484
 20
152.8551665580566
 30
0.0
 11
19.99999999999988
 21
149.5000000000001
 31
0.0
  0
LINE
  5
2B9
330
407
100
AcDbEntity
  8
DATA
  6
Continuous
 62
     7
100
AcDbLine
 10
0.8276196682476211
 20
162.1448334419434
 30
0.0
 11
19.99999999999988
 21
165.5000000000001
 31
0.0
  0
LINE
  5
2BA
330
407
100
AcDbEntity
  8
DATA
  6
Continuous
 62
     7
100
AcDbLine
 10
-45.75000000000001
 20
93.7499999999968
 30
0.0
 11
-45.75000000000001
 21
102.3859999999968
 31
0.0
  0
LINE
  5
2BB
330
407
100
AcDbEntity
  8
DATA
  6
Continuous
 62
     7
100
AcDbLine
 10
-54.25000000000014
 20
93.7499999999968
 30
0.0
 11
-54.25000000000014
 21
102.3859999999968
 31
0.0
  0
ARC
  5
2BC
330
407
100
AcDbEntity
  8
DATA
  6
Continuous
 62
     7
100
AcDbCircle
 10
-26.25000000000013
 20
55.64599999999574
 30
0.0
 40
8.0
100
AcDbArc
 50
0.0
 51
90.0
  0
LINE
  5
2BD
330
407
100
AcDbEntity
  8
DATA
  6
Continuous
 62
     7
100
AcDbLine
 10
-29.75000000000024
 20
61.14599999999586
 30
0.0
 11
-29.75000000000001
 21
62.39599999999693
 31
0.0
  0
LINE
  5
2BE
330
407
100
AcDbEntity
  8
DATA
  6
Continuous
 62
     7
100
AcDbLine
 10
-18.25000000000013
 20
-7.942932188137888
 30
0.0
 11
-18.25000000000013
 21
55.64599999999574
 31
0.0
  0
LINE
  5
2BF
330
407
100
AcDbEntity
  8
DATA
  6
Continuous
 62
     7
100
AcDbLine
 10
-20.75000000000001
 20
55.64599999999574
 30
0.0
 11
-20.75000000000001
 21
-7.855947340039563
 31
0.0
  0
LINE
  5
2C0
330
407
100
AcDbEntity
  8
DATA
  6
Continuous
 62
     7
100
AcDbLine
 10
-31.77153390593277
 20
-23.53553390593607
 30
0.0
 11
-19.71446609406736
 21
-11.47846609407054
 31
0.0
  0
ARC
  5
2C1
330
407
100
AcDbEntity
  8
DATA
  6
Continuous
 62
     7
100
AcDbCircle
 10
-36.03488527117067
 20
-19.9500000000034
 30
0.0
 40
3.050000000000011
100
AcDbArc
 50
270.0
 51
314.9999999999993
  0
ARC
  5
2C2
330
407
100
AcDbEntity
  8
DATA
  6
Continuous
 62
     7
100
AcDbCircle
 10
-35.30706781186565
 20
-20.0000000000033
 30
0.0
 40
5.0
100
AcDbArc
 50
270.0
 51
314.9999999999991
  0
LINE
  5
2C3
330
407
100
AcDbEntity
  8
DATA
  6
Continuous
 62
     7
100
AcDbLine
 10
-33.87820958855174
 20
-22.10667568262232
 30
0.0
 11
-21.54374062298463
 21
-9.772206717055155
 31
0.0
  0
LINE
  5
2C4
330
407
100
AcDbEntity
  8
DATA
  6
Continuous
 62
     7
100
AcDbLine
 10
-59.00000000000002
 20
-10.00000000000341
 30
0.0
 11
-50.00000000000002
 21
-14.00000000000329
 31
0.0
  0
LINE
  5
2C5
330
407
100
AcDbEntity
  8
DATA
  6
Continuous
 62
     7
100
AcDbLine
 10
-50.00000000000002
 20
-14.00000000000329
 30
0.0
 11
-41.00000000000001
 21
-10.00000000000329
 31
0.0
  0
LINE
  5
2C6
330
407
100
AcDbEntity
  8
DATA
  6
Continuous
 62
     7
100
AcDbLine
 10
-47.00000000000024
 20
-10.00000000000329
 30
0.0
 11
-41.00000000000001
 21
-10.00000000000329
 31
0.0
  0
LINE
  5
2C7
330
407
100
AcDbEntity
  8
DATA
  6
Continuous
 62
     7
100
AcDbLine
 10
-47.00000000000024
 20
-10.00000000000329
 30
0.0
 11
-47.00000000000024
 21
-4.500000000003353
 31
0.0
  0
LINE
  5
2C8
330
407
100
AcDbEntity
  8
DATA
  6
Continuous
 62
     7
100
AcDbLine
 10
-53.00000000000014
 20
-10.00000000000341
 30
0.0
 11
-53.00000000000014
 21
-4.500000000003353
 31
0.0
  0
LINE
  5
2C9
330
407
100
AcDbEntity
  8
DATA
  6
Continuous
 62
     7
100
AcDbLine
 10
-53.00000000000014
 20
-10.00000000000341
 30
0.0
 11
-59.00000000000002
 21
-10.00000000000341
 31
0.0
  0
CIRCLE
  5
2CA
330
407
100
AcDbEntity
  8
DATA
  6
Continuous
 62
     7
100
AcDbCircle
 10
-34.00000000000001
 20
-16.00000000000329
 30
0.0
 40
2.5
  0
CIRCLE
  5
2CB
330
407
100
AcDbEntity
  8
DATA
  6
Continuous
 62
     7
100
AcDbCircle
 10
-34.00000000000001
 20
-16.00000000000329
 30
0.0
 40
4.0
  0
LINE
  5
2CC
330
407
100
AcDbEntity
  8
DATA
  6
Continuous
 62
     7
100
AcDbLine
 10
-47.00000000000024
 20
-4.500000000003353
 30
0.0
 11
-53.00000000000014
 21
-4.500000000003353
 31
0.0
  0
ARC
  5
2CD
330
407
100
AcDbEntity
  8
DATA
  6
Continuous
 62
     7
100
AcDbCircle
 10
-23.25000000000024
 20
-7.942932188137888
 30
0.0
 40
4.99999999999996
100
AcDbArc
 50
314.9999999999991
 51
0.0
  0
ARC
  5
2CE
330
407
100
AcDbEntity
  8
DATA
  6
Continuous
 62
     7
100
AcDbCircle
 10
-23.46000000000005
 20
-7.855947340039563
 30
0.0
 40
2.709999999999987
100
AcDbArc
 50
315.0
 51
0.0
  0
ARC
  5
2CF
330
407
100
AcDbEntity
  8
DATA
  6
Continuous
 62
     7
100
AcDbCircle
 10
-26.25000000000013
 20
55.64599999999574
 30
0.0
 40
5.5
100
AcDbArc
 50
0.0
 51
90.0
  0
LINE
  5
2D0
330
407
100
AcDbEntity
  8
DATA
  6
Continuous
 62
     7
100
AcDbLine
 10
-49.40000000000011
 20
41.29599999999629
 30
0.0
 11
-50.59999999999992
 21
41.29599999999629
 31
0.0
  0
LINE
  5
2D1
330
407
100
AcDbEntity
  8
DATA
  6
Continuous
 62
     7
100
AcDbLine
 10
-49.40000000000011
 20
42.4959999999961
 30
0.0
 11
-49.40000000000011
 21
41.29599999999629
 31
0.0
  0
LINE
  5
2D2
330
407
100
AcDbEntity
  8
DATA
  6
Continuous
 62
     7
100
AcDbLine
 10
-50.59999999999992
 20
42.4959999999961
 30
0.0
 11
-49.40000000000011
 21
42.4959999999961
 31
0.0
  0
LINE
  5
2D3
330
407
100
AcDbEntity
  8
DATA
  6
Continuous
 62
     7
100
AcDbLine
 10
-50.59999999999992
 20
41.29599999999629
 30
0.0
 11
-50.59999999999992
 21
42.4959999999961
 31
0.0
  0
CIRCLE
  5
2D4
330
407
100
AcDbEntity
  8
DATA
  6
Continuous
 62
     7
100
AcDbCircle
 10
-27.00000000000013
 20
55.64599999999574
 30
0.0
 40
4.0
  0
CIRCLE
  5
2D5
330
407
100
AcDbEntity
  8
DATA
  6
Continuous
 62
     7
100
AcDbCircle
 10
-27.00000000000013
 20
55.64599999999574
 30
0.0
 40
2.5
  0
LINE
  5
2D6
330
407
100
AcDbEntity
  8
DATA
  6
Continuous
 62
     7
100
AcDbLine
 10
-29.75000000000024
 20
61.14599999999586
 30
0.0
 11
-26.25000000000013
 21
61.14599999999586
 31
0.0
  0
LINE
  5
2D7
330
407
100
AcDbEntity
  8
DATA
  6
Continuous
 62
     7
100
AcDbLine
 10
-54.25000000000014
 20
43.39599999999601
 30
0.0
 11
-54.25000000000014
 21
40.39599999999615
 31
0.0
  0
LINE
  5
2D8
330
407
100
AcDbEntity
  8
DATA
  6
Continuous
 62
     7
100
AcDbLine
 10
-54.25000000000014
 20
40.39599999999615
 30
0.0
 11
-45.75000000000001
 21
40.39599999999631
 31
0.0
  0
LINE
  5
2D9
330
407
100
AcDbEntity
  8
DATA
  6
Continuous
 62
     7
100
AcDbLine
 10
-45.75000000000001
 20
43.39599999999626
 30
0.0
 11
-45.75000000000001
 21
40.39599999999631
 31
0.0
  0
LINE
  5
2DA
330
407
100
AcDbEntity
  8
DATA
  6
Continuous
 62
     7
100
AcDbLine
 10
-54.25000000000014
 20
43.39599999999601
 30
0.0
 11
-45.75000000000001
 21
43.39599999999626
 31
0.0
  0
LINE
  5
2DB
330
407
100
AcDbEntity
  8
DATA
  6
Continuous
 62
     7
100
AcDbLine
 10
-50.00000000000002
 20
40.39599999999615
 30
0.0
 11
-50.00000000000002
 21
38.39599999999615
 31
0.0
  0
LINE
  5
2DC
330
407
100
AcDbEntity
  8
DATA
  6
Continuous
 62
     7
100
AcDbLine
 10
-52.00000000000002
 20
40.39599999999615
 30
0.0
 11
-52.00000000000002
 21
38.39599999999615
 31
0.0
  0
LINE
  5
2DD
330
407
100
AcDbEntity
  8
DATA
  6
Continuous
 62
     7
100
AcDbLine
 10
-48.00000000000002
 20
40.39599999999615
 30
0.0
 11
-48.00000000000002
 21
38.39599999999615
 31
0.0
  0
LINE
  5
2DE
330
407
100
AcDbEntity
  8
DATA
  6
Continuous
 62
     7
100
AcDbLine
 10
-38.50000000000001
 20
45.14599999999552
 30
0.0
 11
-35.50000000000001
 21
45.14599999999552
 31
0.0
  0
LINE
  5
2DF
330
407
100
AcDbEntity
  8
DATA
  6
Continuous
 62
     7
100
AcDbLine
 10
-35.50000000000001
 20
45.14599999999552
 30
0.0
 11
-35.50000000000047
 21
53.64599999999574
 31
0.0
  0
LINE
  5
2E0
330
407
100
AcDbEntity
  8
DATA
  6
Continuous
 62
     7
100
AcDbLine
 10
-38.50000000000024
 20
53.64599999999574
 30
0.0
 11
-35.50000000000047
 21
53.64599999999574
 31
0.0
  0
LINE
  5
2E1
330
407
100
AcDbEntity
  8
DATA
  6
Continuous
 62
     7
100
AcDbLine
 10
-38.50000000000001
 20
45.14599999999552
 30
0.0
 11
-38.50000000000024
 21
53.64599999999574
 31
0.0
  0
LINE
  5
2E2
330
407
100
AcDbEntity
  8
DATA
  6
Continuous
 62
     7
100
AcDbLine
 10
-36.4000000000001
 20
47.99599999999547
 30
0.0
 11
-36.4000000000001
 21
46.79599999999567
 31
0.0
  0
LINE
  5
2E3
330
407
100
AcDbEntity
  8
DATA
  6
Continuous
 62
     7
100
AcDbLine
 10
-37.60000000000015
 20
47.99599999999547
 30
0.0
 11
-36.4000000000001
 21
47.99599999999547
 31
0.0
  0
LINE
  5
2E4
330
407
100
AcDbEntity
  8
DATA
  6
Continuous
 62
     7
100
AcDbLine
 10
-37.60000000000015
 20
46.79599999999567
 30
0.0
 11
-37.60000000000015
 21
47.99599999999547
 31
0.0
  0
LINE
  5
2E5
330
407
100
AcDbEntity
  8
DATA
  6
Continuous
 62
     7
100
AcDbLine
 10
-36.4000000000001
 20
46.79599999999567
 30
0.0
 11
-37.60000000000015
 21
46.79599999999567
 31
0.0
  0
LINE
  5
2E6
330
407
100
AcDbEntity
  8
DATA
  6
Continuous
 62
     7
100
AcDbLine
 10
-43.00000000000024
 20
36.89599999999621
 30
0.0
 11
-42.00000000000001
 21
36.89599999999621
 31
0.0
  0
LINE
  5
2E7
330
407
100
AcDbEntity
  8
DATA
  6
Continuous
 62
     7
100
AcDbLine
 10
-44.00000000000002
 20
35.39599999999621
 30
0.0
 11
-43.00000000000024
 21
36.89599999999621
 31
0.0
  0
LINE
  5
2E8
330
407
100
AcDbEntity
  8
DATA
  6
Continuous
 62
     7
100
AcDbLine
 10
-56.50000000000002
 20
35.39599999999621
 30
0.0
 11
-57.50000000000014
 21
36.89599999999621
 31
0.0
  0
LINE
  5
2E9
330
407
100
AcDbEntity
  8
DATA
  6
Continuous
 62
     7
100
AcDbLine
 10
-55.50000000000014
 20
35.39599999999621
 30
0.0
 11
-56.50000000000002
 21
35.39599999999621
 31
0.0
  0
LINE
  5
2EA
330
407
100
AcDbEntity
  8
DATA
  6
Continuous
 62
     7
100
AcDbLine
 10
-52.00000000000002
 20
38.39599999999615
 30
0.0
 11
-54.00000000000002
 21
38.39599999999615
 31
0.0
  0
LINE
  5
2EB
330
407
100
AcDbEntity
  8
DATA
  6
Continuous
 62
     7
100
AcDbLine
 10
-48.00000000000002
 20
38.39599999999615
 30
0.0
 11
-46.00000000000002
 21
38.39599999999615
 31
0.0
  0
LINE
  5
2EC
330
407
100
AcDbEntity
  8
DATA
  6
Continuous
 62
     7
100
AcDbLine
 10
-51.00000000000024
 20
35.39599999999621
 30
0.0
 11
-49.00000000000024
 21
35.39599999999621
 31
0.0
  0
LINE
  5
2ED
330
407
100
AcDbEntity
  8
DATA
  6
Continuous
 62
     7
100
AcDbLine
 10
-35.50000000000024
 20
51.39599999999563
 30
0.0
 11
-31.00000000000024
 21
51.39599999999592
 31
0.0
  0
LINE
  5
2EE
330
407
100
AcDbEntity
  8
DATA
  6
Continuous
 62
     7
100
AcDbLine
 10
-35.50000000000024
 20
49.39599999999563
 30
0.0
 11
-32.00000000000024
 21
49.39599999999579
 31
0.0
  0
LINE
  5
2EF
330
407
100
AcDbEntity
  8
DATA
  6
Continuous
 62
     7
100
AcDbLine
 10
-35.50000000000024
 20
47.39599999999563
 30
0.0
 11
-33.00000000000013
 21
47.39599999999563
 31
0.0
  0
LINE
  5
2F0
330
407
100
AcDbEntity
  8
DATA
  6
Continuous
 62
     7
100
AcDbLine
 10
-32.00000000000024
 20
49.39599999999563
 30
0.0
 11
-32.00000000000001
 21
43.39599999999579
 31
0.0
  0
LINE
  5
2F1
330
407
100
AcDbEntity
  8
DATA
  6
Continuous
 62
     7
100
AcDbLine
 10
-33.00000000000013
 20
47.39599999999563
 30
0.0
 11
-32.9999999999999
 21
41.39599999999556
 31
0.0
  0
LINE
  5
2F2
330
407
100
AcDbEntity
  8
DATA
  6
Continuous
 62
     7
100
AcDbLine
 10
-32.00000000000001
 20
43.39599999999579
 30
0.0
 11
-30.00000000000013
 21
43.39599999999579
 31
0.0
  0
LINE
  5
2F3
330
407
100
AcDbEntity
  8
DATA
  6
Continuous
 62
     7
100
AcDbLine
 10
-31.00000000000013
 20
47.89599999999579
 30
0.0
 11
-30.00000000000013
 21
47.89599999999579
 31
0.0
  0
LINE
  5
2F4
330
407
100
AcDbEntity
  8
DATA
  6
Continuous
 62
     7
100
AcDbLine
 10
-31.00000000000024
 20
51.39599999999592
 30
0.0
 11
-31.00000000000024
 21
47.89599999999579
 31
0.0
  0
LINE
  5
2F5
330
407
100
AcDbEntity
  8
DATA
  6
Continuous
 62
     7
100
AcDbLine
 10
-27.43000000000008
 20
17.95659999999514
 30
0.0
 11
-27.43000000000008
 21
19.11139999999516
 31
0.0
  0
LINE
  5
2F6
330
407
100
AcDbEntity
  8
DATA
  6
Continuous
 62
     7
100
AcDbLine
 10
-31.93000000000031
 20
17.95659999999514
 30
0.0
 11
-31.93000000000031
 21
19.11139999999516
 31
0.0
  0
ARC
  5
2F7
330
407
100
AcDbEntity
  8
DATA
  6
Continuous
 62
     7
100
AcDbCircle
 10
-29.68000000000008
 20
21.45659999999514
 30
0.0
 40
3.249993999999925
100
AcDbArc
 50
313.8131579999992
 51
226.186841999998
  0
ARC
  5
2F8
330
407
100
AcDbEntity
  8
DATA
  6
Continuous
 62
     7
100
AcDbCircle
 10
-29.68000000000008
 20
17.95659999999514
 30
0.0
 40
2.25
100
AcDbArc
 50
180.0
 51
0.0
  0
LINE
  5
2F9
330
407
100
AcDbEntity
  8
DATA
  6
Continuous
 62
     7
100
AcDbLine
 10
-43.00000000000024
 20
21.45659999999514
 30
0.0
 11
-32.9299940000001
 21
21.45659999999514
 31
0.0
  0
CIRCLE
  5
2FA
330
407
100
AcDbEntity
  8
DATA
  6
Continuous
 62
     7
100
AcDbCircle
 10
-50.00000000000002
 20
51.3777999999957
 30
0.0
 40
2.75
  0
CIRCLE
  5
2FB
330
407
100
AcDbEntity
  8
DATA
  6
Continuous
 62
     7
100
AcDbCircle
 10
-50.00000000000002
 20
51.3777999999957
 30
0.0
 40
6.5
  0
LINE
  5
2FC
330
407
100
AcDbEntity
  8
DATA
  6
Continuous
 62
     7
100
AcDbLine
 10
-55.75000000000002
 20
62.39599999999613
 30
0.0
 11
-54.91666666666721
 21
63.64599999999569
 31
0.0
  0
LINE
  5
2FD
330
407
100
AcDbEntity
  8
DATA
  6
Continuous
 62
     7
100
AcDbLine
 10
-45.08333333333292
 20
63.64599999999569
 30
0.0
 11
-44.25000000000014
 21
62.39599999999613
 31
0.0
  0
LINE
  5
2FE
330
407
100
AcDbEntity
  8
DATA
  6
Continuous
 62
     7
100
AcDbLine
 10
-31.50000000000001
 20
63.64599999999569
 30
0.0
 11
-31.50000000000001
 21
62.39599999999569
 31
0.0
  0
LINE
  5
2FF
330
407
100
AcDbEntity
  8
DATA
  6
Continuous
 62
     7
100
AcDbLine
 10
-54.25000000000014
 20
93.7499999999968
 30
0.0
 11
-45.75000000000001
 21
93.7499999999968
 31
0.0
  0
LINE
  5
300
330
407
100
AcDbEntity
  8
DATA
  6
Continuous
 62
     7
100
AcDbLine
 10
-45.50000000000014
 20
129.055999999997
 30
0.0
 11
-44.75490000000037
 21
120.1859999999968
 31
0.0
  0
LINE
  5
301
330
407
100
AcDbEntity
  8
DATA
  6
Continuous
 62
     7
100
AcDbLine
 10
-54.50000000000002
 20
129.055999999997
 30
0.0
 11
-55.24509999999988
 21
120.1859999999968
 31
0.0
  0
LINE
  5
302
330
407
100
AcDbEntity
  8
DATA
  6
Continuous
 62
     7
100
AcDbLine
 10
-55.24509999999988
 20
102.3859999999968
 30
0.0
 11
-44.75490000000037
 21
102.3859999999968
 31
0.0
  0
LINE
  5
303
330
407
100
AcDbEntity
  8
DATA
  6
Continuous
 62
     7
100
AcDbLine
 10
-45.75000000000001
 20
110.1859999999969
 30
0.0
 11
-45.75000000000001
 21
111.185999999997
 31
0.0
  0
LINE
  5
304
330
407
100
AcDbEntity
  8
DATA
  6
Continuous
 62
     7
100
AcDbLine
 10
-44.75490000000037
 20
111.185999999997
 30
0.0
 11
-44.75490000000037
 21
120.1859999999968
 31
0.0
  0
LINE
  5
305
330
407
100
AcDbEntity
  8
DATA
  6
Continuous
 62
     7
100
AcDbLine
 10
-44.75490000000037
 20
102.3859999999968
 30
0.0
 11
-44.75490000000037
 21
110.1859999999969
 31
0.0
  0
LINE
  5
306
330
407
100
AcDbEntity
  8
DATA
  6
Continuous
 62
     7
100
AcDbLine
 10
-54.25000000000014
 20
110.1859999999969
 30
0.0
 11
-54.25000000000014
 21
111.185999999997
 31
0.0
  0
LINE
  5
307
330
407
100
AcDbEntity
  8
DATA
  6
Continuous
 62
     7
100
AcDbLine
 10
-55.24509999999988
 20
120.1859999999968
 30
0.0
 11
-55.24509999999988
 21
111.185999999997
 31
0.0
  0
LINE
  5
308
330
407
100
AcDbEntity
  8
DATA
  6
Continuous
 62
     7
100
AcDbLine
 10
-55.24509999999988
 20
102.3859999999968
 30
0.0
 11
-55.24509999999988
 21
110.1859999999969
 31
0.0
  0
LINE
  5
309
330
407
100
AcDbEntity
  8
DATA
  6
Continuous
 62
     7
100
AcDbLine
 10
-55.24509999999988
 20
120.1859999999968
 30
0.0
 11
-44.75490000000037
 21
120.1859999999968
 31
0.0
  0
LINE
  5
30A
330
407
100
AcDbEntity
  8
DATA
  6
Continuous
 62
     7
100
AcDbLine
 10
-55.24509999999988
 20
111.185999999997
 30
0.0
 11
-44.75490000000037
 21
111.185999999997
 31
0.0
  0
LINE
  5
30B
330
407
100
AcDbEntity
  8
DATA
  6
Continuous
 62
     7
100
AcDbLine
 10
-55.24509999999988
 20
110.1859999999969
 30
0.0
 11
-44.75490000000037
 21
110.1859999999969
 31
0.0
  0
TEXT
  5
30C
330
407
100
AcDbEntity
  8
DATA
 62
     7
100
AcDbText
 10
-37.5
 20
114.9400000000001
 30
0.0
 40
8.144205729166666
  1
コネクター
 41
0.7
 11
-37.5
 21
123.0842057291667
 31
0.0
100
AcDbText
 73
     3
  0
LINE
  5
30D
330
407
100
AcDbEntity
  8
DATA
  6
Continuous
 62
     7
100
AcDbLine
 10
-54.50000000000002
 20
129.055999999997
 30
0.0
 11
-45.50000000000014
 21
129.055999999997
 31
0.0
  0
ARC
  5
30E
330
407
100
AcDbEntity
  8
DATA
  6
Continuous
 62
     7
100
AcDbCircle
 10
-46.12438772793257
 20
134.3554687499969
 30
0.0
 40
5.859374999999952
100
AcDbArc
 50
48.59037789072965
 51
131.4096221092712
  0
ARC
  5
30F
330
407
100
AcDbEntity
  8
DATA
  6
Continuous
 62
     7
100
AcDbCircle
 10
-46.12438772793257
 20
137.4804687499969
 30
0.0
 40
5.859374999999952
100
AcDbArc
 50
48.59037789072965
 51
131.4096221092712
  0
ARC
  5
310
330
407
100
AcDbEntity
  8
DATA
  6
Continuous
 62
     7
100
AcDbCircle
 10
-53.87561227206722
 20
143.1445312499969
 30
0.0
 40
5.859374999999952
100
AcDbArc
 50
228.5903778907297
 51
311.4096221092712
  0
ARC
  5
311
330
407
100
AcDbEntity
  8
DATA
  6
Continuous
 62
     7
100
AcDbCircle
 10
-53.87561227206722
 20
146.269531249997
 30
0.0
 40
5.859374999999952
100
AcDbArc
 50
228.5903778907297
 51
311.4096221092712
  0
LINE
  5
312
330
407
100
AcDbEntity
  8
DATA
  6
Continuous
 62
     7
100
AcDbLine
 10
-52.50000000000002
 20
129.055999999997
 30
0.0
 11
-52.50000000000002
 21
137.4489218649035
 31
0.0
  0
LINE
  5
313
330
407
100
AcDbEntity
  8
DATA
  6
Continuous
 62
     7
100
AcDbLine
 10
-47.50000000000002
 20
129.055999999997
 30
0.0
 11
-47.50000000000002
 21
140.0510781350902
 31
0.0
  0
ARC
  5
314
330
407
100
AcDbEntity
  8
DATA
  6
Continuous
 62
     7
100
AcDbCircle
 10
-42.49999999999991
 20
150.0000000000001
 30
0.0
 40
10.0
100
AcDbArc
 50
90.0
 51
180.0
  0
ARC
  5
315
330
407
100
AcDbEntity
  8
DATA
  6
Continuous
 62
     7
100
AcDbCircle
 10
-42.50000000000013
 20
150.0000000000001
 30
0.0
 40
5.0
100
AcDbArc
 50
90.0
 51
180.0
  0
LINE
  5
316
330
407
100
AcDbEntity
  8
DATA
  6
Continuous
 62
     7
100
AcDbLine
 10
-0.0000000000001137
 20
161.1598029747876
 30
0.0
 11
0.0000000000001137
 21
153.8401970252124
 31
0.0
  0
ARC
  5
317
330
407
100
AcDbEntity
  8
DATA
  6
Continuous
 62
     7
100
AcDbCircle
 10
1.000000000000113
 20
153.8401970252124
 30
0.0
 40
1.0
100
AcDbArc
 50
180.0
 51
260.0737544933477
  0
ARC
  5
318
330
407
100
AcDbEntity
  8
DATA
  6
Continuous
 62
     7
100
AcDbCircle
 10
1.000000000000113
 20
161.1598029747876
 30
0.0
 40
1.00000000000005
100
AcDbArc
 50
99.92624550665219
 51
180.0
  0
LINE
  5
319
330
407
100
AcDbEntity
  8
DATA
  6
Continuous
 62
     7
100
AcDbLine
 10
-42.49999999999991
 20
159.9999999999999
 30
0.0
 11
0.0
 21
159.9999999999999
 31
0.0
  0
LINE
  5
31A
330
407
100
AcDbEntity
  8
DATA
  6
Continuous
 62
     7
100
AcDbLine
 10
-42.50000000000013
 20
155.0000000000002
 30
0.0
 11
0.0000000000001137
 21
154.9999999999998
 31
0.0
  0
LINE
  5
31B
330
407
100
AcDbEntity
  8
DATA
  6
Continuous
 62
     7
100
AcDbLine
 10
-52.49999999999989
 20
140.5739218649036
 30
0.0
 11
-52.49999999999989
 21
150.0000000000001
 31
0.0
  0
LINE
  5
31C
330
407
100
AcDbEntity
  8
DATA
  6
Continuous
 62
     7
100
AcDbLine
 10
-47.50000000000002
 20
143.1760781350902
 30
0.0
 11
-47.50000000000002
 21
150.0000000000001
 31
0.0
  0
LINE
  5
31D
330
407
100
AcDbEntity
  8
DATA
  6
Continuous
 62
     7
100
AcDbLine
 10
37.00000000000011
 20
148.0000000000001
 30
0.0
 11
20.50000000000011
 21
149.0000000000001
 31
0.0
  0
LINE
  5
31E
330
407
100
AcDbEntity
  8
DATA
  6
Continuous
 62
     7
100
AcDbLine
 10
20.50000000000011
 20
165.9999999999999
 30
0.0
 11
37.00000000000011
 21
167.0
 31
0.0
  0
LINE
  5
31F
330
407
100
AcDbEntity
  8
DATA
  6
Continuous
 62
     7
100
AcDbLine
 10
20.50000000000011
 20
165.9999999999999
 30
0.0
 11
20.50000000000011
 21
149.0000000000001
 31
0.0
  0
LINE
  5
320
330
407
100
AcDbEntity
  8
DATA
  6
Continuous
 62
     7
100
AcDbLine
 10
19.99999999999988
 20
165.5000000000001
 30
0.0
 11
19.99999999999988
 21
149.5000000000001
 31
0.0
  0
LINE
  5
321
330
407
100
AcDbEntity
  8
DATA
  6
Continuous
 62
     7
100
AcDbLine
 10
17.00000000000011
 20
164.9750000000001
 30
0.0
 11
17.00000000000011
 21
150.0250000000002
 31
0.0
  0
LINE
  5
322
330
407
100
AcDbEntity
  8
DATA
  6
Continuous
 62
     7
100
AcDbLine
 10
9.437000000000013
 20
151.554775
 30
0.0
 11
9.437000000000013
 21
163.4452250000001
 31
0.0
  0
LINE
  5
323
330
407
100
AcDbEntity
  8
DATA
  6
Continuous
 62
     7
100
AcDbLine
 10
9.937000000000239
 20
151.554775
 30
0.0
 11
9.937000000000239
 21
163.4452250000001
 31
0.0
  0
LINE
  5
324
330
407
100
AcDbEntity
  8
DATA
  6
Continuous
 62
     7
100
AcDbLine
 10
11.76600000000019
 20
151.2347000000001
 30
0.0
 11
11.76600000000019
 21
163.7653000000002
 31
0.0
  0
LINE
  5
325
330
407
100
AcDbEntity
  8
DATA
  6
Continuous
 62
     7
100
AcDbLine
 10
11.26600000000019
 20
151.2347000000001
 30
0.0
 11
11.26600000000019
 21
163.7653000000002
 31
0.0
  0
LINE
  5
326
330
407
100
AcDbEntity
  8
DATA
  6
Continuous
 62
     7
100
AcDbLine
 10
13.09500000000025
 20
150.9146250000001
 30
0.0
 11
13.09500000000025
 21
164.0853750000001
 31
0.0
  0
LINE
  5
327
330
407
100
AcDbEntity
  8
DATA
  6
Continuous
 62
     7
100
AcDbLine
 10
13.59500000000014
 20
150.9146250000001
 30
0.0
 11
13.59500000000014
 21
164.0853750000001
 31
0.0
  0
LINE
  5
328
330
407
100
AcDbEntity
  8
DATA
  6
Continuous
 62
     7
100
AcDbLine
 10
14.92400000000009
 20
150.5945500000001
 30
0.0
 11
14.92400000000009
 21
164.4054500000001
 31
0.0
  0
LINE
  5
329
330
407
100
AcDbEntity
  8
DATA
  6
Continuous
 62
     7
100
AcDbLine
 10
15.42400000000032
 20
150.5945500000001
 30
0.0
 11
15.42400000000032
 21
164.4054500000001
 31
0.0
  0
ARC
  5
32A
330
407
100
AcDbEntity
  8
DATA
  6
Continuous
 62
     7
100
AcDbCircle
 10
7.858000000000062
 20
151.8748500000001
 30
0.0
 40
0.25
100
AcDbArc
 50
180.0
 51
0.0
  0
ARC
  5
32B
330
407
100
AcDbEntity
  8
DATA
  6
Continuous
 62
     7
100
AcDbCircle
 10
9.687000000000125
 20
151.554775
 30
0.0
 40
0.25
100
AcDbArc
 50
180.0
 51
0.0
  0
ARC
  5
32C
330
407
100
AcDbEntity
  8
DATA
  6
Continuous
 62
     7
100
AcDbCircle
 10
11.51600000000019
 20
151.2347000000001
 30
0.0
 40
0.25
100
AcDbArc
 50
180.0
 51
0.0
  0
ARC
  5
32D
330
407
100
AcDbEntity
  8
DATA
  6
Continuous
 62
     7
100
AcDbCircle
 10
13.34500000000014
 20
150.9146250000001
 30
0.0
 40
0.25
100
AcDbArc
 50
180.0
 51
0.0
  0
ARC
  5
32E
330
407
100
AcDbEntity
  8
DATA
  6
Continuous
 62
     7
100
AcDbCircle
 10
15.17400000000009
 20
150.5945500000001
 30
0.0
 40
0.25
100
AcDbArc
 50
180.0
 51
0.0
  0
LINE
  5
32F
330
407
100
AcDbEntity
  8
DATA
  6
Continuous
 62
     7
100
AcDbLine
 10
19.99999999999988
 20
151.5000000000001
 30
0.0
 11
20.50000000000011
 21
151.5000000000001
 31
0.0
  0
LINE
  5
330
330
407
100
AcDbEntity
  8
DATA
  6
Continuous
 62
     7
100
AcDbLine
 10
7.608000000000062
 20
151.8748500000001
 30
0.0
 11
7.608000000000062
 21
163.12515
 31
0.0
  0
LINE
  5
331
330
407
100
AcDbEntity
  8
DATA
  6
Continuous
 62
     7
100
AcDbLine
 10
8.108000000000174
 20
151.8748500000001
 30
0.0
 11
8.108000000000174
 21
163.12515
 31
0.0
  0
ARC
  5
332
330
407
100
AcDbEntity
  8
DATA
  6
Continuous
 62
     7
100
AcDbCircle
 10
6.028999999999996
 20
152.1949250000002
 30
0.0
 40
0.25
100
AcDbArc
 50
180.0
 51
0.0
  0
LINE
  5
333
330
407
100
AcDbEntity
  8
DATA
  6
Continuous
 62
     7
100
AcDbLine
 10
4.199999999999931
 20
152.2649999999999
 30
0.0
 11
4.199999999999931
 21
162.7350000000001
 31
0.0
  0
LINE
  5
334
330
407
100
AcDbEntity
  8
DATA
  6
Continuous
 62
     7
100
AcDbLine
 10
5.77900000000011
 20
152.1949250000002
 30
0.0
 11
5.77900000000011
 21
162.8050750000002
 31
0.0
  0
LINE
  5
335
330
407
100
AcDbEntity
  8
DATA
  6
Continuous
 62
     7
100
AcDbLine
 10
6.27900000000011
 20
152.1949250000002
 30
0.0
 11
6.27900000000011
 21
162.8050750000002
 31
0.0
  0
ARC
  5
336
330
407
100
AcDbEntity
  8
DATA
  6
Continuous
 62
     7
100
AcDbCircle
 10
6.028999999999996
 20
162.8050750000002
 30
0.0
 40
0.25
100
AcDbArc
 50
0.0
 51
180.0
  0
ARC
  5
337
330
407
100
AcDbEntity
  8
DATA
  6
Continuous
 62
     7
100
AcDbCircle
 10
7.858000000000062
 20
163.12515
 30
0.0
 40
0.25
100
AcDbArc
 50
0.0
 51
180.0
  0
ARC
  5
338
330
407
100
AcDbEntity
  8
DATA
  6
Continuous
 62
     7
100
AcDbCircle
 10
9.687000000000125
 20
163.4452250000001
 30
0.0
 40
0.25
100
AcDbArc
 50
0.0
 51
180.0
  0
ARC
  5
339
330
407
100
AcDbEntity
  8
DATA
  6
Continuous
 62
     7
100
AcDbCircle
 10
11.51600000000019
 20
163.7653000000002
 30
0.0
 40
0.25
100
AcDbArc
 50
0.0
 51
180.0
  0
ARC
  5
33A
330
407
100
AcDbEntity
  8
DATA
  6
Continuous
 62
     7
100
AcDbCircle
 10
13.34500000000036
 20
164.0853750000001
 30
0.0
 40
0.25
100
AcDbArc
 50
0.0
 51
180.0
  0
ARC
  5
33B
330
407
100
AcDbEntity
  8
DATA
  6
Continuous
 62
     7
100
AcDbCircle
 10
15.17400000000009
 20
164.4054500000001
 30
0.0
 40
0.25
100
AcDbArc
 50
0.0
 51
180.0
  0
LINE
  5
33C
330
407
100
AcDbEntity
  8
DATA
  6
Continuous
 62
     7
100
AcDbLine
 10
19.99999999999988
 20
163.5000000000001
 30
0.0
 11
20.50000000000011
 21
163.5000000000001
 31
0.0
  0
LINE
  5
33D
330
407
100
AcDbEntity
  8
DATA
  6
Continuous
 62
     7
100
AcDbLine
 10
77.00000000000009
 20
148.25
 30
0.0
 11
37.00000000000011
 21
148.25
 31
0.0
  0
LINE
  5
33E
330
407
100
AcDbEntity
  8
DATA
  6
Continuous
 62
     7
100
AcDbLine
 10
37.00000000000011
 20
166.7499999999999
 30
0.0
 11
77.00000000000009
 21
166.7499999999999
 31
0.0
  0
LINE
  5
33F
330
407
100
AcDbEntity
  8
DATA
  6
Continuous
 62
     7
100
AcDbLine
 10
37.00000000000011
 20
167.0
 30
0.0
 11
37.00000000000011
 21
148.0000000000001
 31
0.0
  0
LINE
  5
340
330
407
100
AcDbEntity
  8
DATA
  6
Continuous
 62
     7
100
AcDbLine
 10
77.00000000000009
 20
166.7499999999999
 30
0.0
 11
77.00000000000009
 21
148.25
 31
0.0
  0
LINE
  5
341
330
407
100
AcDbEntity
  8
DATA
  6
Continuous
 62
     7
100
AcDbLine
 10
75.99999999999987
 20
160.5000000000002
 30
0.0
 11
75.99999999999987
 21
154.5000000000002
 31
0.0
  0
LINE
  5
342
330
407
100
AcDbEntity
  8
DATA
  6
Continuous
 62
     7
100
AcDbLine
 10
73.5000000000001
 20
160.5000000000002
 30
0.0
 11
73.5000000000001
 21
154.5000000000002
 31
0.0
  0
LINE
  5
343
330
407
100
AcDbEntity
  8
DATA
  6
Continuous
 62
     7
100
AcDbLine
 10
75.99999999999987
 20
154.5000000000002
 30
0.0
 11
73.5000000000001
 21
154.5000000000002
 31
0.0
  0
LINE
  5
344
330
407
100
AcDbEntity
  8
DATA
  6
Continuous
 62
     7
100
AcDbLine
 10
75.99999999999987
 20
160.5000000000002
 30
0.0
 11
73.5000000000001
 21
160.5000000000002
 31
0.0
  0
LINE
  5
345
330
407
100
AcDbEntity
  8
DATA
  6
Continuous
 62
     7
100
AcDbLine
 10
-118.75
 20
-312.4999999999999
 30
0.0
 11
-81.25
 21
-312.4999999999999
 31
0.0
  0
LINE
  5
346
330
407
100
AcDbEntity
  8
DATA
  6
Continuous
 62
     7
100
AcDbLine
 10
-125.0
 20
-62.49999999999992
 30
0.0
 11
-75.0
 21
-62.49999999999992
 31
0.0
  0
TEXT
  5
347
330
407
100
AcDbEntity
  8
DATA
 62
     7
100
AcDbText
 10
149.9999999999999
 20
-349.5436999999999
 30
0.0
 40
7.329785156249999
  1
PCC130、PCC130 SW
 41
0.7
 11
149.9999999999999
 21
-342.2139148437499
 31
0.0
100
AcDbText
 73
     3
  0
TEXT
  5
348
330
407
100
AcDbEntity
  8
DATA
 62
     7
100
AcDbText
 10
149.9999999999999
 20
-327.7936999999999
 30
0.0
 40
7.329785156249999
  1
AKG(CROWN)
 41
0.7
 11
149.9999999999999
 21
-320.4639148437499
 31
0.0
100
AcDbText
 73
     3
  0
TEXT
  5
349
330
407
100
AcDbEntity
  8
DATA
 62
     7
100
AcDbText
 10
142.4999999999999
 20
-338.605565
 30
0.0
 40
5.700944010416665
  1
バウンダリー・マイクロホン
 41
0.7
 11
142.4999999999999
 21
-332.9046209895833
 31
0.0
100
AcDbText
 73
     3
  0
TEXT
  5
34A
330
407
100
AcDbEntity
  8
DATA
 62
     7
100
AcDbText
 10
-55.37231459341917
 20
20.49922373095957
 30
0.0
 40
1.71875
  1
PERMANENT
 41
0.7
 72
     1
 11
-50.15877292675251
 21
21.35859873095957
 31
0.0
100
AcDbText
 73
     2
  0
TEXT
  5
34B
330
407
100
AcDbEntity
  8
DATA
 62
     7
100
AcDbText
 10
-56.53780128895013
 20
17.99922373095962
 30
0.0
 40
1.71875
  1
INSTALLATION
 41
0.7
 72
     1
 11
-49.92061378895012
 21
18.85859873095962
 31
0.0
100
AcDbText
 73
     2
  0
TEXT
  5
34C
330
407
100
AcDbEntity
  8
DATA
 62
     7
100
AcDbText
 10
-55.93541666666666
 20
22.99922373095962
 30
0.0
 40
1.71875
  1
CUT OUT FOR
 41
0.7
 72
     1
 11
-50.0
 21
23.85859873095962
 31
0.0
100
AcDbText
 73
     2
  0
TEXT
  5
34D
330
407
100
AcDbEntity
  8
DATA
 62
     7
100
AcDbText
 10
221.1249999999996
 20
42.84918305837404
 30
0.0
 40
6.015625
  1
MOM.
 41
0.7
 11
221.1249999999996
 21
45.85699555837404
 31
0.0
100
AcDbText
 73
     2
  0
TEXT
  5
34E
330
407
100
AcDbEntity
  8
DATA
 62
     7
100
AcDbText
 10
221.1249999999996
 20
58.59918305837386
 30
0.0
 40
6.015625
  1
MOM.
 41
0.7
 11
221.1249999999996
 21
61.60699555837386
 31
0.0
100
AcDbText
 73
     2
  0
TEXT
  5
34F
330
407
100
AcDbEntity
  8
DATA
 62
     7
100
AcDbText
 10
195.2267563300905
 20
28.84918305837305
 30
0.0
 40
6.015625
  1
PUSH ON
 41
0.7
 72
     1
 11
208.4210271634238
 21
31.85699555837305
 31
0.0
100
AcDbText
 73
     2
  0
TEXT
  5
350
330
407
100
AcDbEntity
  8
DATA
 62
     7
100
AcDbText
 10
224.6633359918254
 20
51.59918305837385
 30
0.0
 40
6.015625
  1
ON
 41
0.7
 11
224.6633359918254
 21
54.60699555837385
 31
0.0
100
AcDbText
 73
     2
  0
TEXT
  5
351
330
407
100
AcDbEntity
  8
DATA
 62
     7
100
AcDbText
 10
222.8941679959125
 20
35.84918305837405
 30
0.0
 40
6.015625
  1
OFF
 41
0.7
 11
222.8941679959125
 21
38.85699555837405
 31
0.0
100
AcDbText
 73
     2
  0
TEXT
  5
352
330
407
100
AcDbEntity
  8
DATA
 62
     7
100
AcDbText
 10
193.3064345700486
 20
21.84918305837345
 30
0.0
 40
6.015625
  1
PUSH OFF
 41
0.7
 72
     1
 11
208.606174153382
 21
24.85699555837345
 31
0.0
100
AcDbText
 73
     2
  0
TEXT
  5
353
330
407
100
AcDbEntity
  8
DATA
 62
     7
100
AcDbText
 10
196.3048905901326
 20
11.34918305837325
 30
0.0
 40
6.015625
  1
SWITCH
 41
0.7
 72
     1
 11
208.2358801734659
 21
14.35699555837325
 31
0.0
100
AcDbText
 73
     2
  0
TEXT
  5
354
330
407
100
AcDbEntity
  8
DATA
 62
     7
100
AcDbText
 10
193.1660699867156
 20
4.349183058373249
 30
0.0
 40
6.015625
  1
FUNCTION
 41
0.7
 72
     1
 11
208.6061741533823
 21
7.356995558373249
 31
0.0
100
AcDbText
 73
     2
  0
TEXT
  5
355
330
407
100
AcDbEntity
  8
DATA
 62
     7
100
AcDbText
 10
163.375
 20
22.89918305837548
 30
0.0
 40
6.015625
  1
CUT
 41
0.7
 11
163.375
 21
25.90699555837548
 31
0.0
100
AcDbText
 73
     2
  0
TEXT
  5
356
330
407
100
AcDbEntity
  8
DATA
 62
     7
100
AcDbText
 10
130.9216145833333
 20
6.099183058375041
 30
0.0
 40
6.015625
  1
BASS TILT
 41
0.7
 72
     1
 11
147.625
 21
9.106995558375041
 31
0.0
100
AcDbText
 73
     2
  0
TEXT
  5
357
330
407
100
AcDbEntity
  8
DATA
 62
     7
100
AcDbText
 10
139.9049479166666
 20
17.299183058375
 30
0.0
 40
6.015625
  1
FLAT
 41
0.7
 72
     1
 11
147.625
 21
20.306995558375
 31
0.0
100
AcDbText
 73
     2
  0
TEXT
  5
358
330
407
100
AcDbEntity
  8
DATA
 62
     7
100
AcDbText
 10
114.0754264666312
 20
22.89918305837548
 30
0.0
 40
6.015625
  1
BOOST
 41
0.7
 72
     2
 11
133.7264681332979
 21
25.90699555837548
 31
0.0
100
AcDbText
 73
     2
  0
LINE
  5
359
330
407
100
AcDbEntity
  8
DATA
  6
Continuous
 62
     7
100
AcDbLine
 10
149.7249999999997
 20
36.40000000000012
 30
0.0
 11
145.5250000000003
 21
36.40000000000012
 31
0.0
  0
LINE
  5
35A
330
407
100
AcDbEntity
  8
DATA
  6
Continuous
 62
     7
100
AcDbLine
 10
149.7249999999997
 20
40.59999999999948
 30
0.0
 11
149.7249999999997
 21
36.40000000000012
 31
0.0
  0
LINE
  5
35B
330
407
100
AcDbEntity
  8
DATA
  6
Continuous
 62
     7
100
AcDbLine
 10
145.5250000000003
 20
40.59999999999948
 30
0.0
 11
149.7249999999997
 21
40.59999999999948
 31
0.0
  0
LINE
  5
35C
330
407
100
AcDbEntity
  8
DATA
  6
Continuous
 62
     7
100
AcDbLine
 10
145.5250000000003
 20
36.40000000000012
 30
0.0
 11
145.5250000000003
 21
40.59999999999948
 31
0.0
  0
LINE
  5
35D
330
407
100
AcDbEntity
  8
DATA
  6
Continuous
 62
     7
100
AcDbLine
 10
132.7499999999995
 20
43.7499999999992
 30
0.0
 11
132.7499999999995
 21
33.2499999999996
 31
0.0
  0
LINE
  5
35E
330
407
100
AcDbEntity
  8
DATA
  6
Continuous
 62
     7
100
AcDbLine
 10
132.7499999999995
 20
33.2499999999996
 30
0.0
 11
162.5
 21
33.2500000000002
 31
0.0
  0
LINE
  5
35F
330
407
100
AcDbEntity
  8
DATA
  6
Continuous
 62
     7
100
AcDbLine
 10
162.5
 20
43.75
 30
0.0
 11
162.5
 21
33.2500000000002
 31
0.0
  0
LINE
  5
360
330
407
100
AcDbEntity
  8
DATA
  6
Continuous
 62
     7
100
AcDbLine
 10
132.7499999999995
 20
43.7499999999992
 30
0.0
 11
162.5
 21
43.75
 31
0.0
  0
LINE
  5
361
330
407
100
AcDbEntity
  8
DATA
  6
Continuous
 62
     7
100
AcDbLine
 10
147.625
 20
33.2499999999996
 30
0.0
 11
147.625
 21
26.2499999999996
 31
0.0
  0
LINE
  5
362
330
407
100
AcDbEntity
  8
DATA
  6
Continuous
 62
     7
100
AcDbLine
 10
140.625
 20
33.2499999999996
 30
0.0
 11
140.625
 21
26.2499999999996
 31
0.0
  0
LINE
  5
363
330
407
100
AcDbEntity
  8
DATA
  6
Continuous
 62
     7
100
AcDbLine
 10
154.625
 20
33.2499999999996
 30
0.0
 11
154.625
 21
26.2499999999996
 31
0.0
  0
LINE
  5
364
330
407
100
AcDbEntity
  8
DATA
  6
Continuous
 62
     7
100
AcDbLine
 10
187.875
 20
49.87499999999741
 30
0.0
 11
198.375
 21
49.87499999999741
 31
0.0
  0
LINE
  5
365
330
407
100
AcDbEntity
  8
DATA
  6
Continuous
 62
     7
100
AcDbLine
 10
198.375
 20
49.87499999999741
 30
0.0
 11
198.3749999999984
 21
79.62499999999822
 31
0.0
  0
LINE
  5
366
330
407
100
AcDbEntity
  8
DATA
  6
Continuous
 62
     7
100
AcDbLine
 10
187.8749999999992
 20
79.62499999999822
 30
0.0
 11
198.3749999999984
 21
79.62499999999822
 31
0.0
  0
LINE
  5
367
330
407
100
AcDbEntity
  8
DATA
  6
Continuous
 62
     7
100
AcDbLine
 10
187.875
 20
49.87499999999741
 30
0.0
 11
187.8749999999992
 21
79.62499999999822
 31
0.0
  0
LINE
  5
368
330
407
100
AcDbEntity
  8
DATA
  6
Continuous
 62
     7
100
AcDbLine
 10
195.2249999999997
 20
59.8499999999973
 30
0.0
 11
195.2249999999997
 21
55.64999999999793
 31
0.0
  0
LINE
  5
369
330
407
100
AcDbEntity
  8
DATA
  6
Continuous
 62
     7
100
AcDbLine
 10
191.0249999999995
 20
59.8499999999973
 30
0.0
 11
195.2249999999997
 21
59.8499999999973
 31
0.0
  0
LINE
  5
36A
330
407
100
AcDbEntity
  8
DATA
  6
Continuous
 62
     7
100
AcDbLine
 10
191.0249999999995
 20
55.64999999999793
 30
0.0
 11
191.0249999999995
 21
59.8499999999973
 31
0.0
  0
LINE
  5
36B
330
407
100
AcDbEntity
  8
DATA
  6
Continuous
 62
     7
100
AcDbLine
 10
195.2249999999997
 20
55.64999999999793
 30
0.0
 11
191.0249999999995
 21
55.64999999999793
 31
0.0
  0
LINE
  5
36C
330
407
100
AcDbEntity
  8
DATA
  6
Continuous
 62
     7
100
AcDbLine
 10
172.1249999999992
 20
20.9999999999998
 30
0.0
 11
175.625
 21
20.9999999999998
 31
0.0
  0
LINE
  5
36D
330
407
100
AcDbEntity
  8
DATA
  6
Continuous
 62
     7
100
AcDbLine
 10
168.625
 20
15.7499999999998
 30
0.0
 11
172.1249999999992
 21
20.9999999999998
 31
0.0
  0
LINE
  5
36E
330
407
100
AcDbEntity
  8
DATA
  6
Continuous
 62
     7
100
AcDbLine
 10
124.875
 20
15.7499999999998
 30
0.0
 11
121.3749999999995
 21
20.9999999999998
 31
0.0
  0
LINE
  5
36F
330
407
100
AcDbEntity
  8
DATA
  6
Continuous
 62
     7
100
AcDbLine
 10
128.3749999999995
 20
15.7499999999998
 30
0.0
 11
124.875
 21
15.7499999999998
 31
0.0
  0
LINE
  5
370
330
407
100
AcDbEntity
  8
DATA
  6
Continuous
 62
     7
100
AcDbLine
 10
140.625
 20
26.2499999999996
 30
0.0
 11
133.625
 21
26.2499999999996
 31
0.0
  0
LINE
  5
371
330
407
100
AcDbEntity
  8
DATA
  6
Continuous
 62
     7
100
AcDbLine
 10
154.625
 20
26.2499999999996
 30
0.0
 11
161.625
 21
26.2499999999996
 31
0.0
  0
LINE
  5
372
330
407
100
AcDbEntity
  8
DATA
  6
Continuous
 62
     7
100
AcDbLine
 10
144.1249999999991
 20
15.7499999999998
 30
0.0
 11
151.1249999999991
 21
15.7499999999998
 31
0.0
  0
LINE
  5
373
330
407
100
AcDbEntity
  8
DATA
  6
Continuous
 62
     7
100
AcDbLine
 10
198.3749999999992
 20
71.74999999999781
 30
0.0
 11
214.1249999999992
 21
71.7499999999988
 31
0.0
  0
LINE
  5
374
330
407
100
AcDbEntity
  8
DATA
  6
Continuous
 62
     7
100
AcDbLine
 10
198.3749999999992
 20
64.74999999999781
 30
0.0
 11
210.6249999999992
 21
64.74999999999841
 31
0.0
  0
LINE
  5
375
330
407
100
AcDbEntity
  8
DATA
  6
Continuous
 62
     7
100
AcDbLine
 10
198.3749999999992
 20
57.74999999999781
 30
0.0
 11
207.1249999999996
 21
57.74999999999781
 31
0.0
  0
LINE
  5
376
330
407
100
AcDbEntity
  8
DATA
  6
Continuous
 62
     7
100
AcDbLine
 10
210.6249999999992
 20
64.74999999999781
 30
0.0
 11
210.625
 21
43.74999999999841
 31
0.0
  0
LINE
  5
377
330
407
100
AcDbEntity
  8
DATA
  6
Continuous
 62
     7
100
AcDbLine
 10
207.1249999999996
 20
57.74999999999781
 30
0.0
 11
207.1250000000004
 21
36.74999999999761
 31
0.0
  0
LINE
  5
378
330
407
100
AcDbEntity
  8
DATA
  6
Continuous
 62
     7
100
AcDbLine
 10
210.625
 20
43.74999999999841
 30
0.0
 11
217.6249999999996
 21
43.74999999999841
 31
0.0
  0
LINE
  5
379
330
407
100
AcDbEntity
  8
DATA
  6
Continuous
 62
     7
100
AcDbLine
 10
214.1249999999996
 20
59.49999999999841
 30
0.0
 11
217.6249999999996
 21
59.49999999999841
 31
0.0
  0
LINE
  5
37A
330
407
100
AcDbEntity
  8
DATA
  6
Continuous
 62
     7
100
AcDbLine
 10
214.1249999999992
 20
71.7499999999988
 30
0.0
 11
214.1249999999992
 21
59.49999999999841
 31
0.0
  0
TEXT
  5
37B
330
407
100
AcDbEntity
  8
DATA
 62
     7
100
AcDbText
 10
-45.50000000000002
 20
-212.5613762690394
 30
0.0
 40
1.71875
  1
CUT
 41
0.7
 11
-45.50000000000002
 21
-211.7020012690394
 31
0.0
100
AcDbText
 73
     2
  0
TEXT
  5
37C
330
407
100
AcDbEntity
  8
DATA
 62
     7
100
AcDbText
 10
-54.77239583333333
 20
-217.3613762690395
 30
0.0
 40
1.71875
  1
BASS TILT
 41
0.7
 72
     1
 11
-50.0
 21
-216.5020012690396
 31
0.0
100
AcDbText
 73
     2
  0
TEXT
  5
37D
330
407
100
AcDbEntity
  8
DATA
 62
     7
100
AcDbText
 10
-52.20572916666666
 20
-214.1613762690395
 30
0.0
 40
1.71875
  1
FLAT
 41
0.7
 72
     1
 11
-50.0
 21
-213.3020012690395
 31
0.0
100
AcDbText
 73
     2
  0
TEXT
  5
37E
330
407
100
AcDbEntity
  8
DATA
 62
     7
100
AcDbText
 10
-59.58559243810538
 20
-212.5613762690394
 30
0.0
 40
1.71875
  1
BOOST
 41
0.7
 72
     2
 11
-53.97100910477204
 21
-211.7020012690394
 31
0.0
100
AcDbText
 73
     2
  0
LINE
  5
37F
330
407
100
AcDbEntity
  8
DATA
  6
Continuous
 62
     7
100
AcDbLine
 10
-43.00000000000024
 20
-213.1040000000039
 30
0.0
 11
-42.00000000000001
 21
-213.1040000000039
 31
0.0
  0
LINE
  5
380
330
407
100
AcDbEntity
  8
DATA
  6
Continuous
 62
     7
100
AcDbLine
 10
-48.00000000000002
 20
-211.6040000000039
 30
0.0
 11
-46.00000000000002
 21
-211.6040000000039
 31
0.0
  0
LINE
  5
381
330
407
100
AcDbEntity
  8
DATA
  6
Continuous
 62
     7
100
AcDbLine
 10
199.4999999999994
 20
-224.7499999999999
 30
0.0
 11
203.0000000000002
 21
-224.7499999999999
 31
0.0
  0
LINE
  5
382
330
407
100
AcDbEntity
  8
DATA
  6
Continuous
 62
     7
100
AcDbLine
 10
182.0000000000002
 20
-219.5
 30
0.0
 11
189.0000000000002
 21
-219.5
 31
0.0
  0
LINE
  5
383
330
407
100
AcDbEntity
  8
DATA
  6
Continuous
 62
     7
100
AcDbLine
 10
177.0999999999999
 20
-209.35
 30
0.0
 11
172.9000000000005
 21
-209.35
 31
0.0
  0
LINE
  5
384
330
407
100
AcDbEntity
  8
DATA
  6
Continuous
 62
     7
100
AcDbLine
 10
177.0999999999999
 20
-205.1499999999999
 30
0.0
 11
177.0999999999999
 21
-209.35
 31
0.0
  0
LINE
  5
385
330
407
100
AcDbEntity
  8
DATA
  6
Continuous
 62
     7
100
AcDbLine
 10
172.9000000000005
 20
-205.1499999999999
 30
0.0
 11
177.0999999999999
 21
-205.1499999999999
 31
0.0
  0
LINE
  5
386
330
407
100
AcDbEntity
  8
DATA
  6
Continuous
 62
     7
100
AcDbLine
 10
172.9000000000005
 20
-209.35
 30
0.0
 11
172.9000000000005
 21
-205.1499999999999
 31
0.0
  0
LINE
  5
387
330
407
100
AcDbEntity
  8
DATA
  6
Continuous
 62
     7
100
AcDbLine
 10
160.1249999999998
 20
-202.0000000000004
 30
0.0
 11
160.1249999999998
 21
-212.5000000000003
 31
0.0
  0
LINE
  5
388
330
407
100
AcDbEntity
  8
DATA
  6
Continuous
 62
     7
100
AcDbLine
 10
160.1249999999998
 20
-212.5000000000003
 30
0.0
 11
189.8750000000002
 21
-212.4999999999992
 31
0.0
  0
LINE
  5
389
330
407
100
AcDbEntity
  8
DATA
  6
Continuous
 62
     7
100
AcDbLine
 10
189.8750000000002
 20
-201.9999999999996
 30
0.0
 11
189.8750000000002
 21
-212.4999999999992
 31
0.0
  0
LINE
  5
38A
330
407
100
AcDbEntity
  8
DATA
  6
Continuous
 62
     7
100
AcDbLine
 10
160.1249999999998
 20
-202.0000000000004
 30
0.0
 11
189.8750000000002
 21
-201.9999999999996
 31
0.0
  0
LINE
  5
38B
330
407
100
AcDbEntity
  8
DATA
  6
Continuous
 62
     7
100
AcDbLine
 10
196.0000000000002
 20
-230.0
 30
0.0
 11
199.4999999999994
 21
-224.7499999999999
 31
0.0
  0
LINE
  5
38C
330
407
100
AcDbEntity
  8
DATA
  6
Continuous
 62
     7
100
AcDbLine
 10
152.2500000000002
 20
-230.0
 30
0.0
 11
148.7499999999998
 21
-224.7499999999999
 31
0.0
  0
LINE
  5
38D
330
407
100
AcDbEntity
  8
DATA
  6
Continuous
 62
     7
100
AcDbLine
 10
155.7499999999998
 20
-230.0
 30
0.0
 11
152.2500000000002
 21
-230.0
 31
0.0
  0
LINE
  5
38E
330
407
100
AcDbEntity
  8
DATA
  6
Continuous
 62
     7
100
AcDbLine
 10
168.0000000000002
 20
-219.5
 30
0.0
 11
161.0000000000002
 21
-219.5
 31
0.0
  0
LINE
  5
38F
330
407
100
AcDbEntity
  8
DATA
  6
Continuous
 62
     7
100
AcDbLine
 10
171.4999999999994
 20
-230.0
 30
0.0
 11
178.4999999999994
 21
-230.0
 31
0.0
  0
LINE
  5
390
330
407
100
AcDbEntity
  8
DATA
  6
Continuous
 62
     7
100
AcDbLine
 10
175.0000000000002
 20
-212.5
 30
0.0
 11
175.0000000000002
 21
-219.5
 31
0.0
  0
LINE
  5
391
330
407
100
AcDbEntity
  8
DATA
  6
Continuous
 62
     7
100
AcDbLine
 10
168.0000000000002
 20
-212.5
 30
0.0
 11
168.0000000000002
 21
-219.5
 31
0.0
  0
LINE
  5
392
330
407
100
AcDbEntity
  8
DATA
  6
Continuous
 62
     7
100
AcDbLine
 10
182.0000000000002
 20
-212.5
 30
0.0
 11
182.0000000000002
 21
-219.5
 31
0.0
  0
TEXT
  5
393
330
407
100
AcDbEntity
  8
DATA
 62
     7
100
AcDbText
 10
190.7500000000002
 20
-222.8508169416243
 30
0.0
 40
6.015625
  1
CUT
 41
0.7
 11
190.7500000000002
 21
-219.8430044416243
 31
0.0
100
AcDbText
 73
     2
  0
TEXT
  5
394
330
407
100
AcDbEntity
  8
DATA
 62
     7
100
AcDbText
 10
158.2966145833336
 20
-239.6508169416248
 30
0.0
 40
6.015625
  1
BASS TILT
 41
0.7
 72
     1
 11
175.0000000000002
 21
-236.6430044416247
 31
0.0
100
AcDbText
 73
     2
  0
TEXT
  5
395
330
407
100
AcDbEntity
  8
DATA
 62
     7
100
AcDbText
 10
167.2799479166669
 20
-228.4508169416248
 30
0.0
 40
6.015625
  1
FLAT
 41
0.7
 72
     1
 11
175.0000000000002
 21
-225.4430044416248
 31
0.0
100
AcDbText
 73
     2
  0
TEXT
  5
396
330
407
100
AcDbEntity
  8
DATA
 62
     7
100
AcDbText
 10
141.4504264666314
 20
-222.8508169416243
 30
0.0
 40
6.015625
  1
BOOST
 41
0.7
 72
     2
 11
161.101468133298
 21
-219.8430044416243
 31
0.0
100
AcDbText
 73
     2
  0
ENDSEC
  0
SECTION
  2
OBJECTS
  0
DICTIONARY
  5
3A4
330
0
100
AcDbDictionary
281
     1
  3
ACAD_CIP_PREVIOUS_PRODUCT_INFO
350
41F
  3
ACAD_COLOR
350
3FA
  3
ACAD_DETAILVIEWSTYLE
350
401
  3
ACAD_GROUP
350
3A5
  3
ACAD_LAYOUT
350
3F9
  3
ACAD_MATERIAL
350
3A8
  3
ACAD_MLEADERSTYLE
350
3FD
  3
ACAD_MLINESTYLE
350
3F6
  3
ACAD_PLOTSETTINGS
350
3F8
  3
ACAD_PLOTSTYLENAME
350
3A6
  3
ACAD_SCALELIST
350
3DA
  3
ACAD_SECTIONVIEWSTYLE
350
3FF
  3
ACAD_TABLESTYLE
350
3FB
  3
ACAD_VISUALSTYLE
350
3C1
  3
ACDB_RECOMPOSE_DATA
350
437
  3
AcDbVariableDictionary
350
42A
  3
DWGPROPS
350
438
  0
DICTIONARY
  5
420
330
3EC
100
AcDbDictionary
280
     1
281
     1
  3
ADSK_XREC_LAYER_RECONCILED
360
421
  0
DICTIONARY
  5
422
330
40B
100
AcDbDictionary
280
     1
281
     1
  3
ADSK_XREC_LAYER_RECONCILED
360
423
  0
DICTIONARY
  5
424
330
417
100
AcDbDictionary
280
     1
281
     1
  3
ADSK_XREC_LAYER_RECONCILED
360
425
  0
DICTIONARY
  5
426
330
418
100
AcDbDictionary
280
     1
281
     1
  3
ADSK_XREC_LAYER_RECONCILED
360
427
  0
DICTIONARY
  5
428
330
419
100
AcDbDictionary
280
     1
281
     1
  3
ADSK_XREC_LAYER_RECONCILED
360
429
  0
XRECORD
  5
41F
102
{ACAD_REACTORS
330
3A4
102
}
330
3A4
100
AcDbXrecord
280
     1
300
ACDLT
300
2018
300
ACDLT_F_S
  0
DICTIONARY
  5
3FA
102
{ACAD_REACTORS
330
3A4
102
}
330
3A4
100
AcDbDictionary
281
     1
  0
DICTIONARY
  5
401
102
{ACAD_REACTORS
330
3A4
102
}
330
3A4
100
AcDbDictionary
281
     1
  3
Imperial24
350
402
  0
DICTIONARY
  5
3A5
102
{ACAD_REACTORS
330
3A4
102
}
330
3A4
100
AcDbDictionary
281
     1
  0
DICTIONARY
  5
3F9
102
{ACAD_REACTORS
330
3A4
102
}
330
3A4
100
AcDbDictionary
281
     1
  3
Model
350
40A
  3
レイアウト1
350
406
  0
DICTIONARY
  5
3A8
102
{ACAD_REACTORS
330
3A4
102
}
330
3A4
100
AcDbDictionary
281
     1
  3
ByBlock
350
3B1
  3
ByLayer
350
3A9
  3
Global
350
3B9
  0
DICTIONARY
  5
3FD
102
{ACAD_REACTORS
330
3A4
102
}
330
3A4
100
AcDbDictionary
281
     1
  3
Standard
350
3FE
  0
DICTIONARY
  5
3F6
102
{ACAD_REACTORS
330
3A4
102
}
330
3A4
100
AcDbDictionary
281
     1
  3
Standard
350
3F7
  0
DICTIONARY
  5
3F8
102
{ACAD_REACTORS
330
3A4
102
}
330
3A4
100
AcDbDictionary
281
     1
  0
ACDBDICTIONARYWDFLT
  5
3A6
102
{ACAD_REACTORS
330
3A4
102
}
330
3A4
100
AcDbDictionary
281
     1
  3
Normal
350
3A7
100
AcDbDictionaryWithDefault
340
3A7
  0
DICTIONARY
  5
3DA
102
{ACAD_REACTORS
330
3A4
102
}
330
3A4
100
AcDbDictionary
281
     1
  3
A0
350
3DB
  3
A1
350
3DC
  3
A2
350
3DD
  3
A3
350
3DE
  3
A4
350
3DF
  3
A5
350
3E0
  3
A6
350
3E1
  3
A7
350
3E2
  3
A8
350
3E3
  3
A9
350
3E4
  3
B0
350
3E5
  3
B1
350
3E6
  3
B2
350
3E7
  3
B3
350
3E8
  3
B4
350
3E9
  3
B5
350
3EA
  3
B6
350
3EB
  0
DICTIONARY
  5
3FF
102
{ACAD_REACTORS
330
3A4
102
}
330
3A4
100
AcDbDictionary
281
     1
  3
Imperial24
350
400
  0
DICTIONARY
  5
3FB
102
{ACAD_REACTORS
330
3A4
102
}
330
3A4
100
AcDbDictionary
281
     1
  3
Standard
350
3FC
  0
DICTIONARY
  5
3C1
102
{ACAD_REACTORS
330
3A4
102
}
330
3A4
100
AcDbDictionary
281
     1
  3
2dWireframe
350
3C7
  3
Basic
350
3C6
  3
Brighten
350
3CD
  3
ColorChange
350
3D1
  3
Conceptual
350
3CA
  3
Dim
350
3CC
  3
EdgeColorOff
350
3D9
  3
Facepattern
350
3D0
  3
Flat
350
3C2
  3
FlatWithEdges
350
3C3
  3
Gouraud
350
3C4
  3
GouraudWithEdges
350
3C5
  3
Hidden
350
3C9
  3
JitterOff
350
3D7
  3
Linepattern
350
3CF
  3
OverhangOff
350
3D8
  3
Realistic
350
3CB
  3
Shaded
350
3D6
  3
Shaded with edges
350
3D5
  3
Shades of Gray
350
3D2
  3
Sketchy
350
3D3
  3
Thicken
350
3CE
  3
Wireframe
350
3C8
  3
X-Ray
350
3D4
  0
XRECORD
  5
437
102
{ACAD_REACTORS
330
3A4
102
}
330
3A4
100
AcDbXrecord
280
     1
 90
        1
330
3FC
  0
DICTIONARY
  5
42A
102
{ACAD_REACTORS
330
3A4
102
}
330
3A4
100
AcDbDictionary
281
     1
  3
CANNOSCALE
350
42F
  3
CMLEADERSTYLE
350
42C
  3
CTABLESTYLE
350
42B
  3
CVIEWDETAILSTYLE
350
42D
  3
CVIEWSECTIONSTYLE
350
42E
  3
DIMASSOC
350
432
  3
INDEXCTL
350
431
  3
SORTENTS
350
430
  3
XCLIPFRAME
350
433
  0
XRECORD
  5
438
102
{ACAD_REACTORS
330
3A4
102
}
330
3A4
100
AcDbXrecord
280
     1
  1
DWGPROPS COOKIE
  2

  3

  4

  6

  7

  8
sasaki_n
  9

300
=
301
=
302
=
303
=
304
=
305
=
306
=
307
=
308
=
309
=
 40
0.0003240740740741
 41
2458087.724895833
 42
2458087.72775463
  1

 90
        0
  0
XRECORD
  5
421
102
{ACAD_REACTORS
330
420
102
}
330
420
100
AcDbXrecord
280
     1
290
     1
  0
XRECORD
  5
423
102
{ACAD_REACTORS
330
422
102
}
330
422
100
AcDbXrecord
280
     1
290
     1
  0
XRECORD
  5
425
102
{ACAD_REACTORS
330
424
102
}
330
424
100
AcDbXrecord
280
     1
290
     1
  0
XRECORD
  5
427
102
{ACAD_REACTORS
330
426
102
}
330
426
100
AcDbXrecord
280
     1
290
     1
  0
XRECORD
  5
429
102
{ACAD_REACTORS
330
428
102
}
330
428
100
AcDbXrecord
280
     1
290
     1
  0
ACDBDETAILVIEWSTYLE
  5
402
102
{ACAD_XDICTIONARY
360
470
102
}
102
{ACAD_REACTORS
330
401
102
}
330
401
100
AcDbModelDocViewStyle
 70
     0
  3
Imperial24
290
     0
100
AcDbDetailViewStyle
 70
     0
 71
     0
 90
        3
 71
     1
340
3ED
 40
0.24
340
0
 40
0.24
300

 40
0.36
280
     3
 71
     2
340
3F4
 90
       25
 71
     3
340
3ED
 40
0.24
 90
        1
 40
0.75
 90
        1
300
%<\AcVar ViewType \f "%tc1">% %<\AcVar ViewDetailId>%\PSCALE %<\AcVar ViewScale \f "%sn">%
 71
     4
340
3F4
 90
       25
340
3F4
 90
       25
280
     0
  0
LAYOUT
  5
40A
102
{ACAD_XDICTIONARY
360
474
102
}
102
{ACAD_REACTORS
330
3F9
102
}
330
3F9
100
AcDbPlotSettings
  1

  2
DocuPrint 3000-3
  4

  6

 40
0.0
 41
0.0
 42
0.0
 43
0.0
 44
0.0
 45
0.0
 46
0.0
 47
0.0
 48
0.0
 49
0.0
140
0.0
141
0.0
142
1.0
143
1.0
 70
  1712
 72
     0
 73
     0
 74
     0
  7

 75
     0
147
1.0
148
0.0
149
0.0
100
AcDbLayout
  1
Model
 70
     1
 71
     0
 10
0.0
 20
0.0
 11
12.0
 21
9.0
 12
0.0
 22
0.0
 32
0.0
 14
0.0
 24
0.0
 34
0.0
 15
0.0
 25
0.0
 35
0.0
146
0.0
 13
0.0
 23
0.0
 33
0.0
 16
1.0
 26
0.0
 36
0.0
 17
0.0
 27
1.0
 37
0.0
 76
     0
330
407
331
40C
  0
LAYOUT
  5
406
102
{ACAD_XDICTIONARY
360
472
102
}
102
{ACAD_REACTORS
330
3F9
102
}
330
3F9
100
AcDbPlotSettings
  1

  2
DocuPrint 3000-3
  4

  6

 40
0.0
 41
0.0
 42
0.0
 43
0.0
 44
0.0
 45
0.0
 46
0.0
 47
0.0
 48
0.0
 49
0.0
140
0.0
141
0.0
142
1.0
143
1.0
 70
   688
 72
     0
 73
     0
 74
     5
  7

 75
    16
147
1.0
148
0.0
149
0.0
100
AcDbLayout
  1
レイアウト1
 70
     0
 71
     1
 10
0.0
 20
0.0
 11
12.0
 21
9.0
 12
0.0
 22
0.0
 32
0.0
 14
1.000000000000000E+20
 24
1.000000000000000E+20
 34
1.000000000000000E+20
 15
-1.000000000000000E+20
 25
-1.000000000000000E+20
 35
-1.000000000000000E+20
146
0.0
 13
0.0
 23
0.0
 33
0.0
 16
1.0
 26
0.0
 36
0.0
 17
0.0
 27
1.0
 37
0.0
 76
     0
330
403
  0
MATERIAL
  5
3B1
102
{ACAD_XDICTIONARY
360
3B2
102
}
102
{ACAD_REACTORS
330
3A8
102
}
330
3A8
100
AcDbMaterial
  1
ByBlock
 72
     0
 43
0.0208333333333333
 43
0.0
 43
0.0
 43
0.0
 43
0.0
 43
0.0208333333333333
 43
0.0
 43
0.0
 43
0.0
 43
0.0
 43
1.0
 43
0.0
 43
0.0
 43
0.0
 43
0.0
 43
1.0
 77
     0
 47
0.0208333333333333
 47
0.0
 47
0.0
 47
0.0
 47
0.0
 47
0.0208333333333333
 47
0.0
 47
0.0
 47
0.0
 47
0.0
 47
1.0
 47
0.0
 47
0.0
 47
0.0
 47
0.0
 47
1.0
171
     0
 49
0.0208333333333333
 49
0.0
 49
0.0
 49
0.0
 49
0.0
 49
0.0208333333333333
 49
0.0
 49
0.0
 49
0.0
 49
0.0
 49
1.0
 49
0.0
 49
0.0
 49
0.0
 49
0.0
 49
1.0
175
     0
142
0.0208333333333333
142
0.0
142
0.0
142
0.0
142
0.0
142
0.0208333333333333
142
0.0
142
0.0
142
0.0
142
0.0
142
1.0
142
0.0
142
0.0
142
0.0
142
0.0
142
1.0
179
     0
144
0.0208333333333333
144
0.0
144
0.0
144
0.0
144
0.0
144
0.0208333333333333
144
0.0
144
0.0
144
0.0
144
0.0
144
1.0
144
0.0
144
0.0
144
0.0
144
0.0
144
1.0
147
0.0208333333333333
147
0.0
147
0.0
147
0.0
147
0.0
147
0.0208333333333333
147
0.0
147
0.0
147
0.0
147
0.0
147
1.0
147
0.0
147
0.0
147
0.0
147
0.0
147
1.0
  0
MATERIAL
  5
3A9
102
{ACAD_XDICTIONARY
360
3AA
102
}
102
{ACAD_REACTORS
330
3A8
102
}
330
3A8
100
AcDbMaterial
  1
ByLayer
 72
     0
 43
0.0208333333333333
 43
0.0
 43
0.0
 43
0.0
 43
0.0
 43
0.0208333333333333
 43
0.0
 43
0.0
 43
0.0
 43
0.0
 43
1.0
 43
0.0
 43
0.0
 43
0.0
 43
0.0
 43
1.0
 77
     0
 47
0.0208333333333333
 47
0.0
 47
0.0
 47
0.0
 47
0.0
 47
0.0208333333333333
 47
0.0
 47
0.0
 47
0.0
 47
0.0
 47
1.0
 47
0.0
 47
0.0
 47
0.0
 47
0.0
 47
1.0
171
     0
 49
0.0208333333333333
 49
0.0
 49
0.0
 49
0.0
 49
0.0
 49
0.0208333333333333
 49
0.0
 49
0.0
 49
0.0
 49
0.0
 49
1.0
 49
0.0
 49
0.0
 49
0.0
 49
0.0
 49
1.0
175
     0
142
0.0208333333333333
142
0.0
142
0.0
142
0.0
142
0.0
142
0.0208333333333333
142
0.0
142
0.0
142
0.0
142
0.0
142
1.0
142
0.0
142
0.0
142
0.0
142
0.0
142
1.0
179
     0
144
0.0208333333333333
144
0.0
144
0.0
144
0.0
144
0.0
144
0.0208333333333333
144
0.0
144
0.0
144
0.0
144
0.0
144
1.0
144
0.0
144
0.0
144
0.0
144
0.0
144
1.0
147
0.0208333333333333
147
0.0
147
0.0
147
0.0
147
0.0
147
0.0208333333333333
147
0.0
147
0.0
147
0.0
147
0.0
147
1.0
147
0.0
147
0.0
147
0.0
147
0.0
147
1.0
  0
MATERIAL
  5
3B9
102
{ACAD_XDICTIONARY
360
3BA
102
}
102
{ACAD_REACTORS
330
3A8
102
}
330
3A8
100
AcDbMaterial
  1
Global
 72
     0
 43
0.0208333333333333
 43
0.0
 43
0.0
 43
0.0
 43
0.0
 43
0.0208333333333333
 43
0.0
 43
0.0
 43
0.0
 43
0.0
 43
1.0
 43
0.0
 43
0.0
 43
0.0
 43
0.0
 43
1.0
 77
     0
 47
0.0208333333333333
 47
0.0
 47
0.0
 47
0.0
 47
0.0
 47
0.0208333333333333
 47
0.0
 47
0.0
 47
0.0
 47
0.0
 47
1.0
 47
0.0
 47
0.0
 47
0.0
 47
0.0
 47
1.0
171
     0
 49
0.0208333333333333
 49
0.0
 49
0.0
 49
0.0
 49
0.0
 49
0.0208333333333333
 49
0.0
 49
0.0
 49
0.0
 49
0.0
 49
1.0
 49
0.0
 49
0.0
 49
0.0
 49
0.0
 49
1.0
175
     0
142
0.0208333333333333
142
0.0
142
0.0
142
0.0
142
0.0
142
0.0208333333333333
142
0.0
142
0.0
142
0.0
142
0.0
142
1.0
142
0.0
142
0.0
142
0.0
142
0.0
142
1.0
179
     0
144
0.0208333333333333
144
0.0
144
0.0
144
0.0
144
0.0
144
0.0208333333333333
144
0.0
144
0.0
144
0.0
144
0.0
144
1.0
144
0.0
144
0.0
144
0.0
144
0.0
144
1.0
147
0.0208333333333333
147
0.0
147
0.0
147
0.0
147
0.0
147
0.0208333333333333
147
0.0
147
0.0
147
0.0
147
0.0
147
1.0
147
0.0
147
0.0
147
0.0
147
0.0
147
1.0
  0
MLEADERSTYLE
  5
3FE
102
{ACAD_REACTORS
330
3FD
102
}
330
3FD
100
AcDbMLeaderStyle
170
     2
171
     1
172
     0
 90
        2
 40
0.0
 41
0.0
173
     1
 91
-1056964608
340
3F2
 92
       -2
290
     1
 42
0.09
291
     1
 43
0.36
  3
Standard
 44
0.18
300

342
3ED
174
     1
178
     6
175
     1
176
     0
 93
-1056964608
 45
0.18
292
     0
297
     0
 46
0.18
 94
-1056964608
 47
1.0
 49
1.0
140
1.0
293
     1
141
0.0
294
     1
177
     0
142
1.0
295
     0
296
     0
143
0.125
1001
ACAD_MLEADERVER
1070
     2
  0
MLINESTYLE
  5
3F7
102
{ACAD_REACTORS
330
3F6
102
}
330
3F6
100
AcDbMlineStyle
  2
STANDARD
 70
     0
  3

 62
   256
 51
90.0
 52
90.0
 71
     2
 49
0.5
 62
   256
  6
BYLAYER
 49
-0.5
 62
   256
  6
BYLAYER
  0
ACDBPLACEHOLDER
  5
3A7
102
{ACAD_REACTORS
330
3A6
102
}
330
3A6
  0
SCALE
  5
3DB
102
{ACAD_REACTORS
330
3DA
102
}
330
3DA
100
AcDbScale
 70
     0
300
1:1
140
1.0
141
1.0
290
     1
  0
SCALE
  5
3DC
102
{ACAD_REACTORS
330
3DA
102
}
330
3DA
100
AcDbScale
 70
     0
300
1/128" = 1'-0"
140
0.0078125
141
12.0
290
     0
  0
SCALE
  5
3DD
102
{ACAD_REACTORS
330
3DA
102
}
330
3DA
100
AcDbScale
 70
     0
300
1/64" = 1'-0"
140
0.015625
141
12.0
290
     0
  0
SCALE
  5
3DE
102
{ACAD_REACTORS
330
3DA
102
}
330
3DA
100
AcDbScale
 70
     0
300
1/32" = 1'-0"
140
0.03125
141
12.0
290
     0
  0
SCALE
  5
3DF
102
{ACAD_REACTORS
330
3DA
102
}
330
3DA
100
AcDbScale
 70
     0
300
1/16" = 1'-0"
140
0.0625
141
12.0
290
     0
  0
SCALE
  5
3E0
102
{ACAD_REACTORS
330
3DA
102
}
330
3DA
100
AcDbScale
 70
     0
300
3/32" = 1'-0"
140
0.09375
141
12.0
290
     0
  0
SCALE
  5
3E1
102
{ACAD_REACTORS
330
3DA
102
}
330
3DA
100
AcDbScale
 70
     0
300
1/8" = 1'-0"
140
0.125
141
12.0
290
     0
  0
SCALE
  5
3E2
102
{ACAD_REACTORS
330
3DA
102
}
330
3DA
100
AcDbScale
 70
     0
300
3/16" = 1'-0"
140
0.1875
141
12.0
290
     0
  0
SCALE
  5
3E3
102
{ACAD_REACTORS
330
3DA
102
}
330
3DA
100
AcDbScale
 70
     0
300
1/4" = 1'-0"
140
0.25
141
12.0
290
     0
  0
SCALE
  5
3E4
102
{ACAD_REACTORS
330
3DA
102
}
330
3DA
100
AcDbScale
 70
     0
300
3/8" = 1'-0"
140
0.375
141
12.0
290
     0
  0
SCALE
  5
3E5
102
{ACAD_REACTORS
330
3DA
102
}
330
3DA
100
AcDbScale
 70
     0
300
1/2" = 1'-0"
140
0.5
141
12.0
290
     0
  0
SCALE
  5
3E6
102
{ACAD_REACTORS
330
3DA
102
}
330
3DA
100
AcDbScale
 70
     0
300
3/4" = 1'-0"
140
0.75
141
12.0
290
     0
  0
SCALE
  5
3E7
102
{ACAD_REACTORS
330
3DA
102
}
330
3DA
100
AcDbScale
 70
     0
300
1" = 1'-0"
140
1.0
141
12.0
290
     0
  0
SCALE
  5
3E8
102
{ACAD_REACTORS
330
3DA
102
}
330
3DA
100
AcDbScale
 70
     0
300
1-1/2" = 1'-0"
140
1.5
141
12.0
290
     0
  0
SCALE
  5
3E9
102
{ACAD_REACTORS
330
3DA
102
}
330
3DA
100
AcDbScale
 70
     0
300
3" = 1'-0"
140
3.0
141
12.0
290
     0
  0
SCALE
  5
3EA
102
{ACAD_REACTORS
330
3DA
102
}
330
3DA
100
AcDbScale
 70
     0
300
6" = 1'-0"
140
6.0
141
12.0
290
     0
  0
SCALE
  5
3EB
102
{ACAD_REACTORS
330
3DA
102
}
330
3DA
100
AcDbScale
 70
     0
300
1'-0" = 1'-0"
140
12.0
141
12.0
290
     0
  0
ACDBSECTIONVIEWSTYLE
  5
400
102
{ACAD_XDICTIONARY
360
46E
102
}
102
{ACAD_REACTORS
330
3FF
102
}
330
3FF
100
AcDbModelDocViewStyle
 70
     0
  3
Imperial24
290
     0
100
AcDbSectionViewStyle
 70
     0
 71
     0
 90
       78
 71
     1
340
3ED
 40
0.24
340
0
340
0
 40
0.24
300
I, O, Q, S, X, Z
 40
0.48
 90
        3
 40
0.18
 90
        1
 71
     2
340
3F4
 90
       25
340
3F4
 90
       50
 40
0.24
 40
0.0
 40
0.24
 71
     3
340
3ED
 40
0.24
 90
        1
 40
0.75
 90
        1
300
%<\AcVar ViewType \f "%tc1">% %<\AcVar ViewSectionStartId>%-%<\AcVar ViewSectionEndId>%\PSCALE %<\AcVar ViewScale \f "%sn">%
 71
     4
300
ANSI31
 40
1.0
 90
        0
290
     0
290
     0
 90
        6
 40
0.0
 40
1.570796326794896
 40
0.2617993877991494
 40
1.308996938995747
 40
-0.2617993877991494
 40
1.832595714594046
  0
TABLESTYLE
  5
3FC
102
{ACAD_XDICTIONARY
360
435
102
}
102
{ACAD_REACTORS
330
3FB
102
}
330
3FB
100
AcDbTableStyle
  3
Standard
 70
     0
 71
     0
 40
0.06
 41
0.06
280
     0
281
     0
  7
STANDARD
140
0.18
170
     2
 62
     0
 63
     7
283
     0
274
    -2
284
     1
 64
     0
275
    -2
285
     1
 65
     0
276
    -2
286
     1
 66
     0
277
    -2
287
     1
 67
     0
278
    -2
288
     1
 68
     0
279
    -2
289
     1
 69
     0
  7
STANDARD
140
0.25
170
     5
 62
     0
 63
     7
283
     0
274
    -2
284
     1
 64
     0
275
    -2
285
     1
 65
     0
276
    -2
286
     1
 66
     0
277
    -2
287
     1
 67
     0
278
    -2
288
     1
 68
     0
279
    -2
289
     1
 69
     0
  7
STANDARD
140
0.18
170
     5
 62
     0
 63
     7
283
     0
274
    -2
284
     1
 64
     0
275
    -2
285
     1
 65
     0
276
    -2
286
     1
 66
     0
277
    -2
287
     1
 67
     0
278
    -2
288
     1
 68
     0
279
    -2
289
     1
 69
     0
  0
VISUALSTYLE
  5
3C7
102
{ACAD_XDICTIONARY
360
446
102
}
102
{ACAD_REACTORS
330
3C1
102
}
330
3C1
100
AcDbVisualStyle
  2
2dWireframe
 70
     4
 71
     0
 72
     2
 73
     0
 90
        0
 40
-0.6
 41
-30.0
 62
     5
 63
     7
 74
     1
 91
        4
 64
     7
 65
   257
 75
     1
175
     1
 42
1.0
 92
        0
 66
   257
 43
1.0
 76
     1
 77
     6
 78
     2
 67
     7
 79
     5
170
     0
171
     0
290
     0
174
     0
 93
        1
 44
0.0
173
     0
291
     0
 45
0.0
1001
ACAD
1000
AcDbSavedByObjectVersion
1070
     0
  0
VISUALSTYLE
  5
3C6
102
{ACAD_XDICTIONARY
360
444
102
}
102
{ACAD_REACTORS
330
3C1
102
}
330
3C1
100
AcDbVisualStyle
  2
Basic
 70
     7
 71
     1
 72
     0
 73
     1
 90
        0
 40
-0.6
 41
-30.0
 62
     5
 63
     7
 74
     0
 91
        4
 64
     7
 65
   257
 75
     1
175
     1
 42
1.0
 92
        8
 66
     7
 43
1.0
 76
     1
 77
     6
 78
     2
 67
     7
 79
     5
170
     0
171
     0
290
     0
174
     0
 93
        1
 44
0.0
173
     0
291
     1
 45
0.0
1001
ACAD
1000
AcDbSavedByObjectVersion
1070
     0
  0
VISUALSTYLE
  5
3CD
102
{ACAD_XDICTIONARY
360
452
102
}
102
{ACAD_REACTORS
330
3C1
102
}
330
3C1
100
AcDbVisualStyle
  2
Brighten
 70
    12
 71
     2
 72
     2
 73
     0
 90
        0
 40
-0.6
 41
-30.0
 62
     5
 63
     7
 74
     1
 91
        4
 64
     7
 65
   257
 75
     1
175
     1
 42
1.0
 92
        8
 66
     7
 43
1.0
 76
     1
 77
     6
 78
     2
 67
     7
 79
     5
170
     0
171
     0
290
     0
174
     0
 93
        1
 44
50.0
173
     0
291
     1
 45
0.0
1001
ACAD
1000
AcDbSavedByObjectVersion
1070
     0
  0
VISUALSTYLE
  5
3D1
102
{ACAD_XDICTIONARY
360
45A
102
}
102
{ACAD_REACTORS
330
3C1
102
}
330
3C1
100
AcDbVisualStyle
  2
ColorChange
 70
    16
 71
     2
 72
     2
 73
     3
 90
        0
 40
-0.6
 41
-30.0
 62
     5
 63
     8
 74
     1
 91
        4
 64
     7
 65
   257
 75
     1
175
     1
 42
1.0
 92
        8
 66
     8
 43
1.0
 76
     1
 77
     6
 78
     2
 67
     7
 79
     5
170
     0
171
     0
290
     0
174
     0
 93
        1
 44
0.0
173
     0
291
     1
 45
0.0
1001
ACAD
1000
AcDbSavedByObjectVersion
1070
     0
  0
VISUALSTYLE
  5
3CA
102
{ACAD_XDICTIONARY
360
44C
102
}
102
{ACAD_REACTORS
330
3C1
102
}
330
3C1
100
AcDbVisualStyle
  2
Conceptual
 70
     9
 71
     3
 72
     2
 73
     0
 90
        0
 40
-0.6
 41
-30.0
 62
     5
 63
     7
 74
     2
 91
        2
 64
     7
 65
   257
 75
     1
175
     1
 42
179.0
 92
        8
 66
     7
 43
1.0
 76
     1
 77
     6
 78
     2
 67
     7
 79
     3
170
     0
171
     0
290
     0
174
     0
 93
        1
 44
0.0
173
     0
291
     0
 45
0.0
1001
ACAD
1000
AcDbSavedByObjectVersion
1070
     0
  0
VISUALSTYLE
  5
3CC
102
{ACAD_XDICTIONARY
360
450
102
}
102
{ACAD_REACTORS
330
3C1
102
}
330
3C1
100
AcDbVisualStyle
  2
Dim
 70
    11
 71
     2
 72
     2
 73
     0
 90
        0
 40
-0.6
 41
-30.0
 62
     5
 63
     7
 74
     1
 91
        4
 64
     7
 65
   257
 75
     1
175
     1
 42
1.0
 92
        8
 66
     7
 43
1.0
 76
     1
 77
     6
 78
     2
 67
     7
 79
     5
170
     0
171
     0
290
     0
174
     0
 93
        1
 44
-50.0
173
     0
291
     1
 45
0.0
1001
ACAD
1000
AcDbSavedByObjectVersion
1070
     0
  0
VISUALSTYLE
  5
3D9
102
{ACAD_XDICTIONARY
360
46A
102
}
102
{ACAD_REACTORS
330
3C1
102
}
330
3C1
100
AcDbVisualStyle
  2
EdgeColorOff
 70
    22
 71
     2
 72
     2
 73
     0
 90
        0
 40
-0.6
 41
-30.0
 62
     5
 63
     7
 74
     1
 91
        4
 64
     7
 65
   257
 75
     1
175
     1
 42
1.0
 92
        8
 66
     7
 43
1.0
 76
     1
 77
     6
 78
     2
 67
     7
 79
     5
170
     0
171
     0
290
     0
174
     0
 93
        1
 44
0.0
173
     0
291
     1
 45
0.0
1001
ACAD
1000
AcDbSavedByObjectVersion
1070
     0
  0
VISUALSTYLE
  5
3D0
102
{ACAD_XDICTIONARY
360
458
102
}
102
{ACAD_REACTORS
330
3C1
102
}
330
3C1
100
AcDbVisualStyle
  2
Facepattern
 70
    15
 71
     2
 72
     2
 73
     0
 90
        0
 40
-0.6
 41
-30.0
 62
     5
 63
     7
 74
     1
 91
        4
 64
     7
 65
   257
 75
     1
175
     1
 42
1.0
 92
        8
 66
     7
 43
1.0
 76
     1
 77
     6
 78
     2
 67
     7
 79
     5
170
     0
171
     0
290
     0
174
     0
 93
        1
 44
0.0
173
     0
291
     1
 45
0.0
1001
ACAD
1000
AcDbSavedByObjectVersion
1070
     0
  0
VISUALSTYLE
  5
3C2
102
{ACAD_XDICTIONARY
360
43C
102
}
102
{ACAD_REACTORS
330
3C1
102
}
330
3C1
100
AcDbVisualStyle
  2
Flat
 70
     0
 71
     2
 72
     1
 73
     1
 90
        2
 40
-0.6
 41
30.0
 62
     5
 63
     7
 74
     0
 91
        0
 64
     7
 65
   257
 75
     1
175
     1
 42
1.0
 92
        8
 66
     7
 43
1.0
 76
     1
 77
     6
 78
     2
 67
     7
 79
     5
170
     0
171
     0
290
     0
174
     0
 93
       13
 44
0.0
173
     0
291
     1
 45
0.0
1001
ACAD
1000
AcDbSavedByObjectVersion
1070
     0
  0
VISUALSTYLE
  5
3C3
102
{ACAD_XDICTIONARY
360
43E
102
}
102
{ACAD_REACTORS
330
3C1
102
}
330
3C1
100
AcDbVisualStyle
  2
FlatWithEdges
 70
     1
 71
     2
 72
     1
 73
     1
 90
        2
 40
-0.6
 41
30.0
 62
     5
 63
     7
 74
     1
 91
        0
 64
     7
 65
   257
 75
     1
175
     1
 42
1.0
 92
        0
 66
   257
 43
1.0
 76
     1
 77
     6
 78
     2
 67
     7
 79
     5
170
     0
171
     0
290
     0
174
     0
 93
       13
 44
0.0
173
     0
291
     1
 45
0.0
1001
ACAD
1000
AcDbSavedByObjectVersion
1070
     0
  0
VISUALSTYLE
  5
3C4
102
{ACAD_XDICTIONARY
360
440
102
}
102
{ACAD_REACTORS
330
3C1
102
}
330
3C1
100
AcDbVisualStyle
  2
Gouraud
 70
     2
 71
     2
 72
     2
 73
     1
 90
        2
 40
-0.6
 41
30.0
 62
     5
 63
     7
 74
     0
 91
        0
 64
     7
 65
   257
 75
     1
175
     1
 42
1.0
 92
        0
 66
     7
 43
1.0
 76
     1
 77
     6
 78
     2
 67
     7
 79
     5
170
     0
171
     0
290
     0
174
     0
 93
       13
 44
0.0
173
     0
291
     1
 45
0.0
1001
ACAD
1000
AcDbSavedByObjectVersion
1070
     0
  0
VISUALSTYLE
  5
3C5
102
{ACAD_XDICTIONARY
360
442
102
}
102
{ACAD_REACTORS
330
3C1
102
}
330
3C1
100
AcDbVisualStyle
  2
GouraudWithEdges
 70
     3
 71
     2
 72
     2
 73
     1
 90
        2
 40
-0.6
 41
30.0
 62
     5
 63
     7
 74
     1
 91
        0
 64
     7
 65
   257
 75
     1
175
     1
 42
1.0
 92
        0
 66
   257
 43
1.0
 76
     1
 77
     6
 78
     2
 67
     7
 79
     5
170
     0
171
     0
290
     0
174
     0
 93
       13
 44
0.0
173
     0
291
     1
 45
0.0
1001
ACAD
1000
AcDbSavedByObjectVersion
1070
     0
  0
VISUALSTYLE
  5
3C9
102
{ACAD_XDICTIONARY
360
44A
102
}
102
{ACAD_REACTORS
330
3C1
102
}
330
3C1
100
AcDbVisualStyle
  2
Hidden
 70
     6
 71
     1
 72
     2
 73
     2
 90
        0
 40
-0.6
 41
-30.0
 62
     5
 63
     7
 74
     2
 91
        2
 64
     7
 65
   257
 75
     2
175
     1
 42
40.0
 92
        0
 66
   257
 43
1.0
 76
     1
 77
     6
 78
     2
 67
     7
 79
     3
170
     0
171
     0
290
     0
174
     0
 93
        1
 44
0.0
173
     0
291
     0
 45
0.0
1001
ACAD
1000
AcDbSavedByObjectVersion
1070
     0
  0
VISUALSTYLE
  5
3D7
102
{ACAD_XDICTIONARY
360
466
102
}
102
{ACAD_REACTORS
330
3C1
102
}
330
3C1
100
AcDbVisualStyle
  2
JitterOff
 70
    20
 71
     2
 72
     2
 73
     0
 90
        0
 40
-0.6
 41
-30.0
 62
     5
 63
     7
 74
     1
 91
        4
 64
     7
 65
   257
 75
     1
175
     1
 42
1.0
 92
       10
 66
     7
 43
1.0
 76
     1
 77
     6
 78
     2
 67
     7
 79
     5
170
     0
171
     0
290
     0
174
     0
 93
        1
 44
0.0
173
     0
291
     1
 45
0.0
1001
ACAD
1000
AcDbSavedByObjectVersion
1070
     0
  0
VISUALSTYLE
  5
3CF
102
{ACAD_XDICTIONARY
360
456
102
}
102
{ACAD_REACTORS
330
3C1
102
}
330
3C1
100
AcDbVisualStyle
  2
Linepattern
 70
    14
 71
     2
 72
     2
 73
     0
 90
        0
 40
-0.6
 41
-30.0
 62
     5
 63
     7
 74
     1
 91
        4
 64
     7
 65
   257
 75
     7
175
     7
 42
1.0
 92
        8
 66
     7
 43
1.0
 76
     1
 77
     6
 78
     2
 67
     7
 79
     5
170
     0
171
     0
290
     0
174
     0
 93
        1
 44
0.0
173
     0
291
     1
 45
0.0
1001
ACAD
1000
AcDbSavedByObjectVersion
1070
     0
  0
VISUALSTYLE
  5
3D8
102
{ACAD_XDICTIONARY
360
468
102
}
102
{ACAD_REACTORS
330
3C1
102
}
330
3C1
100
AcDbVisualStyle
  2
OverhangOff
 70
    21
 71
     2
 72
     2
 73
     0
 90
        0
 40
-0.6
 41
-30.0
 62
     5
 63
     7
 74
     1
 91
        4
 64
     7
 65
   257
 75
     1
175
     1
 42
1.0
 92
        9
 66
     7
 43
1.0
 76
     1
 77
     6
 78
     2
 67
     7
 79
     5
170
     0
171
     0
290
     0
174
     0
 93
        1
 44
0.0
173
     0
291
     1
 45
0.0
1001
ACAD
1000
AcDbSavedByObjectVersion
1070
     0
  0
VISUALSTYLE
  5
3CB
102
{ACAD_XDICTIONARY
360
44E
102
}
102
{ACAD_REACTORS
330
3C1
102
}
330
3C1
100
AcDbVisualStyle
  2
Realistic
 70
     8
 71
     2
 72
     3
 73
     0
 90
        2
 40
-0.6
 41
30.0
 62
     5
 63
     7
 74
     0
 91
        0
 64
     7
 65
   257
 75
     1
175
     1
 42
1.0
 92
        8
 66
   257
 43
1.0
 76
     1
 77
     6
 78
     2
 67
     7
 79
     3
170
     0
171
     0
290
     0
174
     0
 93
       13
 44
0.0
173
     0
291
     0
 45
0.0
1001
ACAD
1000
AcDbSavedByObjectVersion
1070
     0
  0
VISUALSTYLE
  5
3D6
102
{ACAD_XDICTIONARY
360
464
102
}
102
{ACAD_REACTORS
330
3C1
102
}
330
3C1
100
AcDbVisualStyle
  2
Shaded
 70
    27
 71
     2
 72
     2
 73
     1
 90
        2
 40
-0.6
 41
30.0
 62
     5
 63
     7
 74
     0
 91
        4
 64
     7
 65
   257
 75
     1
175
     1
 42
1.0
 92
        8
 66
   257
 43
1.0
 76
     1
 77
     6
 78
     2
 67
     8
 79
     3
170
     0
171
     0
290
     0
174
     0
 93
        5
 44
0.0
173
     0
291
     0
 45
0.0
1001
ACAD
1000
AcDbSavedByObjectVersion
1070
     0
  0
VISUALSTYLE
  5
3D5
102
{ACAD_XDICTIONARY
360
462
102
}
102
{ACAD_REACTORS
330
3C1
102
}
330
3C1
100
AcDbVisualStyle
  2
Shaded with edges
 70
    26
 71
     2
 72
     2
 73
     1
 90
        2
 40
-0.6
 41
30.0
 62
     5
 63
     7
 74
     1
 91
        2
 64
     7
 65
   257
 75
     2
175
     1
 42
1.0
 92
        8
 66
   257
 43
1.0
 76
     1
 77
     6
 78
     2
 67
     7
 79
     3
170
     0
171
     0
290
     0
174
     0
 93
        5
 44
0.0
173
     0
291
     0
 45
0.0
1001
ACAD
1000
AcDbSavedByObjectVersion
1070
     0
  0
VISUALSTYLE
  5
3D2
102
{ACAD_XDICTIONARY
360
45C
102
}
102
{ACAD_REACTORS
330
3C1
102
}
330
3C1
100
AcDbVisualStyle
  2
Shades of Gray
 70
    23
 71
     2
 72
     2
 73
     3
 90
        0
 40
-0.6
 41
-30.0
 62
     5
 63
     7
 74
     2
 91
        2
 64
     7
 65
     7
 75
     1
175
     1
 42
40.0
 92
        8
 66
     7
 43
1.0
 76
     1
 77
     6
 78
     2
 67
     7
 79
     3
170
     0
171
     0
290
     0
174
     0
 93
        1
 44
0.0
173
     0
291
     0
 45
0.0
1001
ACAD
1000
AcDbSavedByObjectVersion
1070
     0
  0
VISUALSTYLE
  5
3D3
102
{ACAD_XDICTIONARY
360
45E
102
}
102
{ACAD_REACTORS
330
3C1
102
}
330
3C1
100
AcDbVisualStyle
  2
Sketchy
 70
    24
 71
     1
 72
     2
 73
     2
 90
        0
 40
-0.6
 41
-30.0
 62
     5
 63
     7
 74
     2
 91
        2
 64
     7
 65
     7
 75
     1
175
     1
 42
40.0
 92
       11
 66
     7
 43
1.0
 76
     1
 77
     6
 78
     2
 67
     7
 79
     6
170
     0
171
     0
290
     0
174
     0
 93
        1
 44
0.0
173
     0
291
     0
 45
0.0
1001
ACAD
1000
AcDbSavedByObjectVersion
1070
     0
  0
VISUALSTYLE
  5
3CE
102
{ACAD_XDICTIONARY
360
454
102
}
102
{ACAD_REACTORS
330
3C1
102
}
330
3C1
100
AcDbVisualStyle
  2
Thicken
 70
    13
 71
     2
 72
     2
 73
     0
 90
        0
 40
-0.6
 41
-30.0
 62
     5
 63
     7
 74
     1
 91
        4
 64
     7
 65
   257
 75
     1
175
     1
 42
1.0
 92
       12
 66
     7
 43
1.0
 76
     1
 77
     6
 78
     2
 67
     7
 79
     5
170
     0
171
     0
290
     0
174
     0
 93
        1
 44
0.0
173
     0
291
     1
 45
0.0
1001
ACAD
1000
AcDbSavedByObjectVersion
1070
     0
  0
VISUALSTYLE
  5
3C8
102
{ACAD_XDICTIONARY
360
448
102
}
102
{ACAD_REACTORS
330
3C1
102
}
330
3C1
100
AcDbVisualStyle
  2
Wireframe
 70
     5
 71
     0
 72
     2
 73
     0
 90
        0
 40
-0.6
 41
-30.0
 62
     5
 63
     7
 74
     1
 91
        4
 64
     7
 65
   257
 75
     1
175
     1
 42
1.0
 92
        0
 66
   257
 43
1.0
 76
     1
 77
     6
 78
     2
 67
     7
 79
     3
170
     0
171
     0
290
     0
174
     0
 93
        1
 44
0.0
173
     0
291
     0
 45
0.0
1001
ACAD
1000
AcDbSavedByObjectVersion
1070
     0
  0
VISUALSTYLE
  5
3D4
102
{ACAD_XDICTIONARY
360
460
102
}
102
{ACAD_REACTORS
330
3C1
102
}
330
3C1
100
AcDbVisualStyle
  2
X-Ray
 70
    25
 71
     2
 72
     2
 73
     1
 90
        1
 40
0.5
 41
-30.0
 62
     5
 63
     7
 74
     1
 91
        0
 64
     7
 65
   257
 75
     1
175
     1
 42
1.0
 92
        8
 66
     7
 43
1.0
 76
     1
 77
     6
 78
     2
 67
     7
 79
     3
170
     0
171
     0
290
     0
174
     0
 93
       13
 44
0.0
173
     0
291
     0
 45
0.0
1001
ACAD
1000
AcDbSavedByObjectVersion
1070
     0
  0
DICTIONARYVAR
  5
42F
102
{ACAD_REACTORS
330
42A
102
}
330
42A
100
DictionaryVariables
280
     0
  1
1:1
  0
DICTIONARYVAR
  5
42C
102
{ACAD_REACTORS
330
42A
102
}
330
42A
100
DictionaryVariables
280
     0
  1
STANDARD
  0
DICTIONARYVAR
  5
42B
102
{ACAD_REACTORS
330
42A
102
}
330
42A
100
DictionaryVariables
280
     0
  1
STANDARD
  0
DICTIONARYVAR
  5
42D
102
{ACAD_REACTORS
330
42A
102
}
330
42A
100
DictionaryVariables
280
     0
  1
Imperial24
  0
DICTIONARYVAR
  5
42E
102
{ACAD_REACTORS
330
42A
102
}
330
42A
100
DictionaryVariables
280
     0
  1
Imperial24
  0
DICTIONARYVAR
  5
432
102
{ACAD_REACTORS
330
42A
102
}
330
42A
100
DictionaryVariables
280
     0
  1
1
  0
DICTIONARYVAR
  5
431
102
{ACAD_REACTORS
330
42A
102
}
330
42A
100
DictionaryVariables
280
     0
  1
0
  0
DICTIONARYVAR
  5
430
102
{ACAD_REACTORS
330
42A
102
}
330
42A
100
DictionaryVariables
280
     0
  1
127
  0
DICTIONARYVAR
  5
433
102
{ACAD_REACTORS
330
42A
102
}
330
42A
100
DictionaryVariables
280
     0
  1
2
  0
DICTIONARY
  5
470
330
402
100
AcDbDictionary
280
     1
281
     1
  3
ACAD_XREC_ROUNDTRIP
360
471
  0
DICTIONARY
  5
474
330
40A
100
AcDbDictionary
280
     1
281
     1
  3
ACAD_XREC_ROUNDTRIP
360
475
  0
DICTIONARY
  5
472
330
406
100
AcDbDictionary
280
     1
281
     1
  3
ACAD_XREC_ROUNDTRIP
360
473
  0
DICTIONARY
  5
3B2
330
3B1
100
AcDbDictionary
280
     1
281
     1
  3
ACAD_XREC_ROUNDTRIP
360
43A
  3
BUMPTILE
360
3B4
  3
DIFFUSETILE
360
3B3
  3
OPACITYTILE
360
3B7
  3
REFLECTIONTILE
360
3B6
  3
REFRACTIONTILE
360
3B8
  3
SPECULARTILE
360
3B5
  0
DICTIONARY
  5
3AA
330
3A9
100
AcDbDictionary
280
     1
281
     1
  3
ACAD_XREC_ROUNDTRIP
360
439
  3
BUMPTILE
360
3AC
  3
DIFFUSETILE
360
3AB
  3
OPACITYTILE
360
3AF
  3
REFLECTIONTILE
360
3AE
  3
REFRACTIONTILE
360
3B0
  3
SPECULARTILE
360
3AD
  0
DICTIONARY
  5
3BA
330
3B9
100
AcDbDictionary
280
     1
281
     1
  3
ACAD_XREC_ROUNDTRIP
360
43B
  3
BUMPTILE
360
3BC
  3
DIFFUSETILE
360
3BB
  3
OPACITYTILE
360
3BF
  3
REFLECTIONTILE
360
3BE
  3
REFRACTIONTILE
360
3C0
  3
SPECULARTILE
360
3BD
  0
DICTIONARY
  5
46E
330
400
100
AcDbDictionary
280
     1
281
     1
  3
ACAD_XREC_ROUNDTRIP
360
46F
  0
DICTIONARY
  5
435
330
3FC
100
AcDbDictionary
280
     1
281
     1
  3
ACAD_ROUNDTRIP_2008_TABLESTYLE_CELLSTYLEMAP
360
436
  3
ACAD_XREC_ROUNDTRIP
360
46C
  0
DICTIONARY
  5
446
330
3C7
100
AcDbDictionary
280
     1
281
     1
  3
ACAD_XREC_ROUNDTRIP
360
447
  0
DICTIONARY
  5
444
330
3C6
100
AcDbDictionary
280
     1
281
     1
  3
ACAD_XREC_ROUNDTRIP
360
445
  0
DICTIONARY
  5
452
330
3CD
100
AcDbDictionary
280
     1
281
     1
  3
ACAD_XREC_ROUNDTRIP
360
453
  0
DICTIONARY
  5
45A
330
3D1
100
AcDbDictionary
280
     1
281
     1
  3
ACAD_XREC_ROUNDTRIP
360
45B
  0
DICTIONARY
  5
44C
330
3CA
100
AcDbDictionary
280
     1
281
     1
  3
ACAD_XREC_ROUNDTRIP
360
44D
  0
DICTIONARY
  5
450
330
3CC
100
AcDbDictionary
280
     1
281
     1
  3
ACAD_XREC_ROUNDTRIP
360
451
  0
DICTIONARY
  5
46A
330
3D9
100
AcDbDictionary
280
     1
281
     1
  3
ACAD_XREC_ROUNDTRIP
360
46B
  0
DICTIONARY
  5
458
330
3D0
100
AcDbDictionary
280
     1
281
     1
  3
ACAD_XREC_ROUNDTRIP
360
459
  0
DICTIONARY
  5
43C
330
3C2
100
AcDbDictionary
280
     1
281
     1
  3
ACAD_XREC_ROUNDTRIP
360
43D
  0
DICTIONARY
  5
43E
330
3C3
100
AcDbDictionary
280
     1
281
     1
  3
ACAD_XREC_ROUNDTRIP
360
43F
  0
DICTIONARY
  5
440
330
3C4
100
AcDbDictionary
280
     1
281
     1
  3
ACAD_XREC_ROUNDTRIP
360
441
  0
DICTIONARY
  5
442
330
3C5
100
AcDbDictionary
280
     1
281
     1
  3
ACAD_XREC_ROUNDTRIP
360
443
  0
DICTIONARY
  5
44A
330
3C9
100
AcDbDictionary
280
     1
281
     1
  3
ACAD_XREC_ROUNDTRIP
360
44B
  0
DICTIONARY
  5
466
330
3D7
100
AcDbDictionary
280
     1
281
     1
  3
ACAD_XREC_ROUNDTRIP
360
467
  0
DICTIONARY
  5
456
330
3CF
100
AcDbDictionary
280
     1
281
     1
  3
ACAD_XREC_ROUNDTRIP
360
457
  0
DICTIONARY
  5
468
330
3D8
100
AcDbDictionary
280
     1
281
     1
  3
ACAD_XREC_ROUNDTRIP
360
469
  0
DICTIONARY
  5
44E
330
3CB
100
AcDbDictionary
280
     1
281
     1
  3
ACAD_XREC_ROUNDTRIP
360
44F
  0
DICTIONARY
  5
464
330
3D6
100
AcDbDictionary
280
     1
281
     1
  3
ACAD_XREC_ROUNDTRIP
360
465
  0
DICTIONARY
  5
462
330
3D5
100
AcDbDictionary
280
     1
281
     1
  3
ACAD_XREC_ROUNDTRIP
360
463
  0
DICTIONARY
  5
45C
330
3D2
100
AcDbDictionary
280
     1
281
     1
  3
ACAD_XREC_ROUNDTRIP
360
45D
  0
DICTIONARY
  5
45E
330
3D3
100
AcDbDictionary
280
     1
281
     1
  3
ACAD_XREC_ROUNDTRIP
360
45F
  0
DICTIONARY
  5
454
330
3CE
100
AcDbDictionary
280
     1
281
     1
  3
ACAD_XREC_ROUNDTRIP
360
455
  0
DICTIONARY
  5
448
330
3C8
100
AcDbDictionary
280
     1
281
     1
  3
ACAD_XREC_ROUNDTRIP
360
449
  0
DICTIONARY
  5
460
330
3D4
100
AcDbDictionary
280
     1
281
     1
  3
ACAD_XREC_ROUNDTRIP
360
461
  0
XRECORD
  5
471
102
{ACAD_REACTORS
330
470
102
}
330
470
100
AcDbXrecord
280
     1
102
DISPLAYNAME
  1
Imperial24
102
FLAGS
 90
        0
  0
XRECORD
  5
475
102
{ACAD_REACTORS
330
474
102
}
330
474
100
AcDbXrecord
280
     1
102
SHADEPLOT
 70
     0
102
SHADEPLOTRESLEVEL
 70
     2
102
SHADEPLOTCUSTOMDPI
 70
   300
  0
XRECORD
  5
473
102
{ACAD_REACTORS
330
472
102
}
330
472
100
AcDbXrecord
280
     1
102
SHADEPLOT
 70
     0
102
SHADEPLOTRESLEVEL
 70
     2
102
SHADEPLOTCUSTOMDPI
 70
   300
  0
XRECORD
  5
43A
102
{ACAD_REACTORS
330
3B2
102
}
330
3B2
100
AcDbXrecord
280
     1
102
MATERIAL
148
0.0
149
0.0
149
0.0
 93
        0
 94
      127
282
     0
 72
     0
 77
     0
171
     0
175
     0
179
     0
273
     0
  0
XRECORD
  5
3B4
102
{ACAD_REACTORS
330
3B2
102
}
330
3B2
100
AcDbXrecord
280
     1
270
     1
271
     1
  0
XRECORD
  5
3B3
102
{ACAD_REACTORS
330
3B2
102
}
330
3B2
100
AcDbXrecord
280
     1
270
     1
271
     1
  0
XRECORD
  5
3B7
102
{ACAD_REACTORS
330
3B2
102
}
330
3B2
100
AcDbXrecord
280
     1
270
     1
271
     1
  0
XRECORD
  5
3B6
102
{ACAD_REACTORS
330
3B2
102
}
330
3B2
100
AcDbXrecord
280
     1
270
     1
271
     1
  0
XRECORD
  5
3B8
102
{ACAD_REACTORS
330
3B2
102
}
330
3B2
100
AcDbXrecord
280
     1
270
     1
271
     1
  0
XRECORD
  5
3B5
102
{ACAD_REACTORS
330
3B2
102
}
330
3B2
100
AcDbXrecord
280
     1
270
     1
271
     1
  0
XRECORD
  5
439
102
{ACAD_REACTORS
330
3AA
102
}
330
3AA
100
AcDbXrecord
280
     1
102
MATERIAL
148
0.0
149
0.0
149
0.0
 93
        0
 94
      127
282
     0
 72
     0
 77
     0
171
     0
175
     0
179
     0
273
     0
  0
XRECORD
  5
3AC
102
{ACAD_REACTORS
330
3AA
102
}
330
3AA
100
AcDbXrecord
280
     1
270
     1
271
     1
  0
XRECORD
  5
3AB
102
{ACAD_REACTORS
330
3AA
102
}
330
3AA
100
AcDbXrecord
280
     1
270
     1
271
     1
  0
XRECORD
  5
3AF
102
{ACAD_REACTORS
330
3AA
102
}
330
3AA
100
AcDbXrecord
280
     1
270
     1
271
     1
  0
XRECORD
  5
3AE
102
{ACAD_REACTORS
330
3AA
102
}
330
3AA
100
AcDbXrecord
280
     1
270
     1
271
     1
  0
XRECORD
  5
3B0
102
{ACAD_REACTORS
330
3AA
102
}
330
3AA
100
AcDbXrecord
280
     1
270
     1
271
     1
  0
XRECORD
  5
3AD
102
{ACAD_REACTORS
330
3AA
102
}
330
3AA
100
AcDbXrecord
280
     1
270
     1
271
     1
  0
XRECORD
  5
43B
102
{ACAD_REACTORS
330
3BA
102
}
330
3BA
100
AcDbXrecord
280
     1
102
MATERIAL
148
0.0
149
0.0
149
0.0
 93
        0
 94
      127
282
     0
 72
     0
 77
     0
171
     0
175
     0
179
     0
273
     0
  0
XRECORD
  5
3BC
102
{ACAD_REACTORS
330
3BA
102
}
330
3BA
100
AcDbXrecord
280
     1
270
     1
271
     1
  0
XRECORD
  5
3BB
102
{ACAD_REACTORS
330
3BA
102
}
330
3BA
100
AcDbXrecord
280
     1
270
     1
271
     1
  0
XRECORD
  5
3BF
102
{ACAD_REACTORS
330
3BA
102
}
330
3BA
100
AcDbXrecord
280
     1
270
     1
271
     1
  0
XRECORD
  5
3BE
102
{ACAD_REACTORS
330
3BA
102
}
330
3BA
100
AcDbXrecord
280
     1
270
     1
271
     1
  0
XRECORD
  5
3C0
102
{ACAD_REACTORS
330
3BA
102
}
330
3BA
100
AcDbXrecord
280
     1
270
     1
271
     1
  0
XRECORD
  5
3BD
102
{ACAD_REACTORS
330
3BA
102
}
330
3BA
100
AcDbXrecord
280
     1
270
     1
271
     1
  0
XRECORD
  5
46F
102
{ACAD_REACTORS
330
46E
102
}
330
46E
100
AcDbXrecord
280
     1
102
DISPLAYNAME
  1
Imperial24
102
FLAGS
 90
        0
  0
CELLSTYLEMAP
  5
436
102
{ACAD_REACTORS
330
435
102
}
330
435
100
AcDbCellStyleMap
 90
        3
300
CELLSTYLE
  1
TABLEFORMAT_BEGIN
 90
        5
170
     1
 91
        0
 92
    32768
 62
   257
 93
        1
300
CONTENTFORMAT
  1
CONTENTFORMAT_BEGIN
 90
        0
 91
        0
 92
      512
 93
        0
300

 40
0.0
140
1.0
 94
        5
 62
     0
340
3ED
144
0.25
309
CONTENTFORMAT_END
171
     0
 94
        0
309
TABLEFORMAT_END
  1
CELLSTYLE_BEGIN
 90
        1
 91
        1
300
_TITLE
309
CELLSTYLE_END
300
CELLSTYLE
  1
TABLEFORMAT_BEGIN
 90
        5
170
     1
 91
        0
 92
        0
 62
   257
 93
        1
300
CONTENTFORMAT
  1
CONTENTFORMAT_BEGIN
 90
        0
 91
        0
 92
      512
 93
        0
300

 40
0.0
140
1.0
 94
        5
 62
     0
340
3ED
144
0.18
309
CONTENTFORMAT_END
171
     0
 94
        0
309
TABLEFORMAT_END
  1
CELLSTYLE_BEGIN
 90
        2
 91
        1
300
_HEADER
309
CELLSTYLE_END
300
CELLSTYLE
  1
TABLEFORMAT_BEGIN
 90
        5
170
     1
 91
        0
 92
        0
 62
   257
 93
        1
300
CONTENTFORMAT
  1
CONTENTFORMAT_BEGIN
 90
        0
 91
        0
 92
      512
 93
        0
300

 40
0.0
140
1.0
 94
        2
 62
     0
340
3ED
144
0.18
309
CONTENTFORMAT_END
171
     0
 94
        0
309
TABLEFORMAT_END
  1
CELLSTYLE_BEGIN
 90
        3
 91
        2
300
_DATA
309
CELLSTYLE_END
  0
XRECORD
  5
46C
102
{ACAD_REACTORS
330
435
102
}
330
435
100
AcDbXrecord
280
     1
102
ACAD_ROUNDTRIP_PRE2007_TABLESTYLE
 90
      512
 91
        0
  1

 92
      512
 93
        0
  2

 94
      512
 95
        0
  3

  0
XRECORD
  5
447
102
{ACAD_REACTORS
330
446
102
}
330
446
100
AcDbXrecord
280
     1
102
RTVSPost2010Prop28
280
     1
102
RTVSPost2010PropOp28
 70
     1
102
RTVSPost2010Prop29
280
     1
102
RTVSPost2010PropOp29
 70
     1
102
RTVSPost2010Prop30
280
     0
102
RTVSPost2010PropOp30
 70
     1
102
RTVSPost2010Prop31
280
     0
102
RTVSPost2010PropOp31
 70
     1
102
RTVSPost2010Prop32
280
     0
102
RTVSPost2010PropOp32
 70
     1
102
RTVSPost2010Prop33
280
     0
102
RTVSPost2010PropOp33
 70
     1
102
RTVSPost2010Prop34
280
     0
102
RTVSPost2010PropOp34
 70
     1
102
RTVSPost2010Prop35
280
     0
102
RTVSPost2010PropOp35
 70
     1
102
RTVSPost2010Prop36
280
     0
102
RTVSPost2010PropOp36
 70
     1
102
RTVSPost2010Prop37
 90
       50
102
RTVSPost2010PropOp37
 70
     1
102
RTVSPost2010Prop38
140
0.0
102
RTVSPost2010PropOp38
 70
     1
102
RTVSPost2010Prop39
140
1.0
102
RTVSPost2010PropOp39
 70
     1
102
RTVSPost2010Prop40
 90
        0
102
RTVSPost2010PropOp40
 70
     1
102
RTVSPost2010Prop41ColorIndex
 90
       18
102
RTVSPost2010Prop41ColorRGB
 90
        0
102
RTVSPost2010PropOp41
 70
     1
102
RTVSPost2010Prop42
 90
       50
102
RTVSPost2010PropOp42
 70
     1
102
RTVSPost2010Prop43
 90
        3
102
RTVSPost2010PropOp43
 70
     1
102
RTVSPost2010Prop44ColorIndex
 90
        5
102
RTVSPost2010Prop44ColorRGB
 90
      255
102
RTVSPost2010PropOp44
 70
     1
102
RTVSPost2010Prop45
280
     0
102
RTVSPost2010PropOp45
 70
     1
102
RTVSPost2010Prop46
 90
       50
102
RTVSPost2010PropOp46
 70
     1
102
RTVSPost2010Prop47
 90
       50
102
RTVSPost2010PropOp47
 70
     1
102
RTVSPost2010Prop48
 90
       50
102
RTVSPost2010PropOp48
 70
     1
102
RTVSPost2010Prop49
280
     0
102
RTVSPost2010PropOp49
 70
     1
102
RTVSPost2010Prop50
 90
       50
102
RTVSPost2010PropOp50
 70
     1
102
RTVSPost2010Prop51ColorIndex
 90
      256
102
RTVSPost2010Prop51ColorRGB
 90
-16777216
102
RTVSPost2010PropOp51
 70
     0
102
RTVSPost2010Prop52
140
1.0
102
RTVSPost2010PropOp52
 70
     0
102
RTVSPost2010Prop53
 90
        2
102
RTVSPost2010PropOp53
 70
     1
102
RTVSPost2010Prop54
  1
strokes_ogs.tif
102
RTVSPost2010PropOp54
 70
     1
102
RTVSPost2010Prop55
280
     0
102
RTVSPost2010PropOp55
 70
     1
102
RTVSPost2010Prop56
140
1.0
102
RTVSPost2010PropOp56
 70
     1
102
RTVSPost2010Prop57
140
1.0
102
RTVSPost2010PropOp57
 70
     1
102
RTVSPropertyOp0
 70
     1
102
RTVSPropertyOp1
 70
     1
102
RTVSPropertyOp2
 70
     1
102
RTVSPropertyOp3
 70
     1
102
RTVSPropertyOp4
 70
     1
102
RTVSPropertyOp5
 70
     1
102
RTVSPropertyOp6
 70
     1
102
RTVSPropertyOp7
 70
     1
102
RTVSPropertyOp8
 70
     1
102
RTVSPropertyOp9
 70
     1
102
RTVSPropertyOp10
 70
     1
102
RTVSPropertyOp11
 70
     1
102
RTVSPropertyOp12
 70
     1
102
RTVSPropertyOp13
 70
     1
102
RTVSPropertyOp14
 70
     1
102
RTVSPropertyOp15
 70
     1
102
RTVSPropertyOp16
 70
     1
102
RTVSPropertyOp17
 70
     1
102
RTVSPropertyOp18
 70
     1
102
RTVSPropertyOp19
 70
     1
102
RTVSPropertyOp20
 70
     1
102
RTVSPropertyOp21
 70
     1
102
RTVSPropertyOp22
 70
     1
102
RTVSPropertyOp23
 70
     1
102
RTVSPropertyOp24
 70
     1
102
RTVSPropertyOp25
 70
     1
102
RTVSPropertyOp26
 70
     1
102
RTVSPropertyOp27
 70
     1
102
RTVSPropertyOp28
 70
     1
102
RTVSPropertyOp29
 70
     1
102
RTVSPropertyOp30
 70
     1
102
RTVSPropertyOp31
 70
     1
102
RTVSPropertyOp32
 70
     1
102
RTVSPropertyOp33
 70
     1
102
RTVSPropertyOp34
 70
     1
102
RTVSPropertyOp35
 70
     1
102
RTVSPropertyOp36
 70
     1
102
RTVSPropertyOp37
 70
     1
102
RTVSPropertyOp38
 70
     1
102
RTVSPropertyOp39
 70
     1
102
RTVSPropertyOp40
 70
     1
102
RTVSPropertyOp41
 70
     1
102
RTVSPropertyOp42
 70
     1
102
RTVSPropertyOp43
 70
     1
102
RTVSPropertyOp44
 70
     1
102
RTVSPropertyOp45
 70
     1
102
RTVSPropertyOp46
 70
     1
102
RTVSPropertyOp47
 70
     1
102
RTVSPropertyOp48
 70
     1
102
RTVSPropertyOp49
 70
     1
102
RTVSPropertyOp50
 70
     1
102
RTVSPropertyOp51
 70
     0
102
RTVSPropertyOp52
 70
     0
102
RTVSPropertyOp53
 70
     1
102
RTVSPropertyOp54
 70
     1
102
RTVSPropertyOp55
 70
     1
102
RTVSPropertyOp56
 70
     1
102
RTVSPropertyOp57
 70
     1
102
RTVSPropertyOp58
 70
     1
102
RTVSPropertyOp59
 70
     1
102
RTVSPropertyOp60
 70
     1
102
RTVSPropertyOp61
 70
     1
102
RTVSPropertyOp62
 70
     1
  0
XRECORD
  5
445
102
{ACAD_REACTORS
330
444
102
}
330
444
100
AcDbXrecord
280
     1
102
RTVSPost2010Prop28
280
     0
102
RTVSPost2010PropOp28
 70
     1
102
RTVSPost2010Prop29
280
     1
102
RTVSPost2010PropOp29
 70
     1
102
RTVSPost2010Prop30
280
     1
102
RTVSPost2010PropOp30
 70
     1
102
RTVSPost2010Prop31
280
     0
102
RTVSPost2010PropOp31
 70
     1
102
RTVSPost2010Prop32
280
     0
102
RTVSPost2010PropOp32
 70
     1
102
RTVSPost2010Prop33
280
     0
102
RTVSPost2010PropOp33
 70
     1
102
RTVSPost2010Prop34
280
     0
102
RTVSPost2010PropOp34
 70
     1
102
RTVSPost2010Prop35
280
     0
102
RTVSPost2010PropOp35
 70
     1
102
RTVSPost2010Prop36
280
     0
102
RTVSPost2010PropOp36
 70
     1
102
RTVSPost2010Prop37
 90
       50
102
RTVSPost2010PropOp37
 70
     1
102
RTVSPost2010Prop38
140
0.0
102
RTVSPost2010PropOp38
 70
     1
102
RTVSPost2010Prop39
140
1.0
102
RTVSPost2010PropOp39
 70
     1
102
RTVSPost2010Prop40
 90
        0
102
RTVSPost2010PropOp40
 70
     1
102
RTVSPost2010Prop41ColorIndex
 90
       18
102
RTVSPost2010Prop41ColorRGB
 90
        0
102
RTVSPost2010PropOp41
 70
     1
102
RTVSPost2010Prop42
 90
       50
102
RTVSPost2010PropOp42
 70
     1
102
RTVSPost2010Prop43
 90
        3
102
RTVSPost2010PropOp43
 70
     1
102
RTVSPost2010Prop44ColorIndex
 90
        5
102
RTVSPost2010Prop44ColorRGB
 90
      255
102
RTVSPost2010PropOp44
 70
     1
102
RTVSPost2010Prop45
280
     0
102
RTVSPost2010PropOp45
 70
     1
102
RTVSPost2010Prop46
 90
       50
102
RTVSPost2010PropOp46
 70
     1
102
RTVSPost2010Prop47
 90
       50
102
RTVSPost2010PropOp47
 70
     1
102
RTVSPost2010Prop48
 90
       50
102
RTVSPost2010PropOp48
 70
     1
102
RTVSPost2010Prop49
280
     0
102
RTVSPost2010PropOp49
 70
     1
102
RTVSPost2010Prop50
 90
       50
102
RTVSPost2010PropOp50
 70
     1
102
RTVSPost2010Prop51ColorIndex
 90
      256
102
RTVSPost2010Prop51ColorRGB
 90
-16777216
102
RTVSPost2010PropOp51
 70
     0
102
RTVSPost2010Prop52
140
1.0
102
RTVSPost2010PropOp52
 70
     0
102
RTVSPost2010Prop53
 90
        2
102
RTVSPost2010PropOp53
 70
     1
102
RTVSPost2010Prop54
  1
strokes_ogs.tif
102
RTVSPost2010PropOp54
 70
     1
102
RTVSPost2010Prop55
280
     0
102
RTVSPost2010PropOp55
 70
     1
102
RTVSPost2010Prop56
140
1.0
102
RTVSPost2010PropOp56
 70
     1
102
RTVSPost2010Prop57
140
1.0
102
RTVSPost2010PropOp57
 70
     1
102
RTVSPropertyOp0
 70
     1
102
RTVSPropertyOp1
 70
     1
102
RTVSPropertyOp2
 70
     1
102
RTVSPropertyOp3
 70
     1
102
RTVSPropertyOp4
 70
     1
102
RTVSPropertyOp5
 70
     1
102
RTVSPropertyOp6
 70
     1
102
RTVSPropertyOp7
 70
     1
102
RTVSPropertyOp8
 70
     1
102
RTVSPropertyOp9
 70
     1
102
RTVSPropertyOp10
 70
     1
102
RTVSPropertyOp11
 70
     1
102
RTVSPropertyOp12
 70
     1
102
RTVSPropertyOp13
 70
     1
102
RTVSPropertyOp14
 70
     1
102
RTVSPropertyOp15
 70
     1
102
RTVSPropertyOp16
 70
     1
102
RTVSPropertyOp17
 70
     1
102
RTVSPropertyOp18
 70
     1
102
RTVSPropertyOp19
 70
     1
102
RTVSPropertyOp20
 70
     1
102
RTVSPropertyOp21
 70
     1
102
RTVSPropertyOp22
 70
     1
102
RTVSPropertyOp23
 70
     1
102
RTVSPropertyOp24
 70
     1
102
RTVSPropertyOp25
 70
     1
102
RTVSPropertyOp26
 70
     1
102
RTVSPropertyOp27
 70
     1
102
RTVSPropertyOp28
 70
     1
102
RTVSPropertyOp29
 70
     1
102
RTVSPropertyOp30
 70
     1
102
RTVSPropertyOp31
 70
     1
102
RTVSPropertyOp32
 70
     1
102
RTVSPropertyOp33
 70
     1
102
RTVSPropertyOp34
 70
     1
102
RTVSPropertyOp35
 70
     1
102
RTVSPropertyOp36
 70
     1
102
RTVSPropertyOp37
 70
     1
102
RTVSPropertyOp38
 70
     1
102
RTVSPropertyOp39
 70
     1
102
RTVSPropertyOp40
 70
     1
102
RTVSPropertyOp41
 70
     1
102
RTVSPropertyOp42
 70
     1
102
RTVSPropertyOp43
 70
     1
102
RTVSPropertyOp44
 70
     1
102
RTVSPropertyOp45
 70
     1
102
RTVSPropertyOp46
 70
     1
102
RTVSPropertyOp47
 70
     1
102
RTVSPropertyOp48
 70
     1
102
RTVSPropertyOp49
 70
     1
102
RTVSPropertyOp50
 70
     1
102
RTVSPropertyOp51
 70
     0
102
RTVSPropertyOp52
 70
     0
102
RTVSPropertyOp53
 70
     1
102
RTVSPropertyOp54
 70
     1
102
RTVSPropertyOp55
 70
     1
102
RTVSPropertyOp56
 70
     1
102
RTVSPropertyOp57
 70
     1
102
RTVSPropertyOp58
 70
     1
102
RTVSPropertyOp59
 70
     1
102
RTVSPropertyOp60
 70
     1
102
RTVSPropertyOp61
 70
     1
102
RTVSPropertyOp62
 70
     1
  0
XRECORD
  5
453
102
{ACAD_REACTORS
330
452
102
}
330
452
100
AcDbXrecord
280
     1
102
RTVSPost2010Prop28
280
     0
102
RTVSPost2010PropOp28
 70
     1
102
RTVSPost2010Prop29
280
     1
102
RTVSPost2010PropOp29
 70
     1
102
RTVSPost2010Prop30
280
     1
102
RTVSPost2010PropOp30
 70
     1
102
RTVSPost2010Prop31
280
     0
102
RTVSPost2010PropOp31
 70
     1
102
RTVSPost2010Prop32
280
     0
102
RTVSPost2010PropOp32
 70
     1
102
RTVSPost2010Prop33
280
     0
102
RTVSPost2010PropOp33
 70
     1
102
RTVSPost2010Prop34
280
     0
102
RTVSPost2010PropOp34
 70
     1
102
RTVSPost2010Prop35
280
     0
102
RTVSPost2010PropOp35
 70
     1
102
RTVSPost2010Prop36
280
     0
102
RTVSPost2010PropOp36
 70
     1
102
RTVSPost2010Prop37
 90
       50
102
RTVSPost2010PropOp37
 70
     1
102
RTVSPost2010Prop38
140
0.0
102
RTVSPost2010PropOp38
 70
     1
102
RTVSPost2010Prop39
140
1.0
102
RTVSPost2010PropOp39
 70
     1
102
RTVSPost2010Prop40
 90
        0
102
RTVSPost2010PropOp40
 70
     1
102
RTVSPost2010Prop41ColorIndex
 90
       18
102
RTVSPost2010Prop41ColorRGB
 90
        0
102
RTVSPost2010PropOp41
 70
     1
102
RTVSPost2010Prop42
 90
       50
102
RTVSPost2010PropOp42
 70
     1
102
RTVSPost2010Prop43
 90
        3
102
RTVSPost2010PropOp43
 70
     1
102
RTVSPost2010Prop44ColorIndex
 90
        5
102
RTVSPost2010Prop44ColorRGB
 90
      255
102
RTVSPost2010PropOp44
 70
     1
102
RTVSPost2010Prop45
280
     0
102
RTVSPost2010PropOp45
 70
     1
102
RTVSPost2010Prop46
 90
       50
102
RTVSPost2010PropOp46
 70
     1
102
RTVSPost2010Prop47
 90
       50
102
RTVSPost2010PropOp47
 70
     1
102
RTVSPost2010Prop48
 90
       50
102
RTVSPost2010PropOp48
 70
     1
102
RTVSPost2010Prop49
280
     0
102
RTVSPost2010PropOp49
 70
     1
102
RTVSPost2010Prop50
 90
       50
102
RTVSPost2010PropOp50
 70
     1
102
RTVSPost2010Prop51ColorIndex
 90
      256
102
RTVSPost2010Prop51ColorRGB
 90
-16777216
102
RTVSPost2010PropOp51
 70
     0
102
RTVSPost2010Prop52
140
1.0
102
RTVSPost2010PropOp52
 70
     0
102
RTVSPost2010Prop53
 90
        2
102
RTVSPost2010PropOp53
 70
     1
102
RTVSPost2010Prop54
  1
strokes_ogs.tif
102
RTVSPost2010PropOp54
 70
     1
102
RTVSPost2010Prop55
280
     0
102
RTVSPost2010PropOp55
 70
     1
102
RTVSPost2010Prop56
140
1.0
102
RTVSPost2010PropOp56
 70
     1
102
RTVSPost2010Prop57
140
1.0
102
RTVSPost2010PropOp57
 70
     1
102
RTVSPropertyOp0
 70
     1
102
RTVSPropertyOp1
 70
     1
102
RTVSPropertyOp2
 70
     1
102
RTVSPropertyOp3
 70
     1
102
RTVSPropertyOp4
 70
     1
102
RTVSPropertyOp5
 70
     1
102
RTVSPropertyOp6
 70
     1
102
RTVSPropertyOp7
 70
     1
102
RTVSPropertyOp8
 70
     1
102
RTVSPropertyOp9
 70
     1
102
RTVSPropertyOp10
 70
     1
102
RTVSPropertyOp11
 70
     1
102
RTVSPropertyOp12
 70
     1
102
RTVSPropertyOp13
 70
     1
102
RTVSPropertyOp14
 70
     1
102
RTVSPropertyOp15
 70
     1
102
RTVSPropertyOp16
 70
     1
102
RTVSPropertyOp17
 70
     1
102
RTVSPropertyOp18
 70
     1
102
RTVSPropertyOp19
 70
     1
102
RTVSPropertyOp20
 70
     1
102
RTVSPropertyOp21
 70
     1
102
RTVSPropertyOp22
 70
     1
102
RTVSPropertyOp23
 70
     1
102
RTVSPropertyOp24
 70
     1
102
RTVSPropertyOp25
 70
     1
102
RTVSPropertyOp26
 70
     1
102
RTVSPropertyOp27
 70
     1
102
RTVSPropertyOp28
 70
     1
102
RTVSPropertyOp29
 70
     1
102
RTVSPropertyOp30
 70
     1
102
RTVSPropertyOp31
 70
     1
102
RTVSPropertyOp32
 70
     1
102
RTVSPropertyOp33
 70
     1
102
RTVSPropertyOp34
 70
     1
102
RTVSPropertyOp35
 70
     1
102
RTVSPropertyOp36
 70
     1
102
RTVSPropertyOp37
 70
     1
102
RTVSPropertyOp38
 70
     1
102
RTVSPropertyOp39
 70
     1
102
RTVSPropertyOp40
 70
     1
102
RTVSPropertyOp41
 70
     1
102
RTVSPropertyOp42
 70
     1
102
RTVSPropertyOp43
 70
     1
102
RTVSPropertyOp44
 70
     1
102
RTVSPropertyOp45
 70
     1
102
RTVSPropertyOp46
 70
     1
102
RTVSPropertyOp47
 70
     1
102
RTVSPropertyOp48
 70
     1
102
RTVSPropertyOp49
 70
     1
102
RTVSPropertyOp50
 70
     1
102
RTVSPropertyOp51
 70
     0
102
RTVSPropertyOp52
 70
     0
102
RTVSPropertyOp53
 70
     1
102
RTVSPropertyOp54
 70
     1
102
RTVSPropertyOp55
 70
     1
102
RTVSPropertyOp56
 70
     1
102
RTVSPropertyOp57
 70
     1
102
RTVSPropertyOp58
 70
     1
102
RTVSPropertyOp59
 70
     1
102
RTVSPropertyOp60
 70
     1
102
RTVSPropertyOp61
 70
     1
102
RTVSPropertyOp62
 70
     1
  0
XRECORD
  5
45B
102
{ACAD_REACTORS
330
45A
102
}
330
45A
100
AcDbXrecord
280
     1
102
RTVSPost2010Prop28
280
     0
102
RTVSPost2010PropOp28
 70
     1
102
RTVSPost2010Prop29
280
     1
102
RTVSPost2010PropOp29
 70
     1
102
RTVSPost2010Prop30
280
     1
102
RTVSPost2010PropOp30
 70
     1
102
RTVSPost2010Prop31
280
     0
102
RTVSPost2010PropOp31
 70
     1
102
RTVSPost2010Prop32
280
     0
102
RTVSPost2010PropOp32
 70
     1
102
RTVSPost2010Prop33
280
     0
102
RTVSPost2010PropOp33
 70
     1
102
RTVSPost2010Prop34
280
     0
102
RTVSPost2010PropOp34
 70
     1
102
RTVSPost2010Prop35
280
     0
102
RTVSPost2010PropOp35
 70
     1
102
RTVSPost2010Prop36
280
     0
102
RTVSPost2010PropOp36
 70
     1
102
RTVSPost2010Prop37
 90
       50
102
RTVSPost2010PropOp37
 70
     1
102
RTVSPost2010Prop38
140
0.0
102
RTVSPost2010PropOp38
 70
     1
102
RTVSPost2010Prop39
140
1.0
102
RTVSPost2010PropOp39
 70
     1
102
RTVSPost2010Prop40
 90
        0
102
RTVSPost2010PropOp40
 70
     1
102
RTVSPost2010Prop41ColorIndex
 90
       18
102
RTVSPost2010Prop41ColorRGB
 90
        0
102
RTVSPost2010PropOp41
 70
     1
102
RTVSPost2010Prop42
 90
       50
102
RTVSPost2010PropOp42
 70
     1
102
RTVSPost2010Prop43
 90
        3
102
RTVSPost2010PropOp43
 70
     1
102
RTVSPost2010Prop44ColorIndex
 90
        5
102
RTVSPost2010Prop44ColorRGB
 90
      255
102
RTVSPost2010PropOp44
 70
     1
102
RTVSPost2010Prop45
280
     0
102
RTVSPost2010PropOp45
 70
     1
102
RTVSPost2010Prop46
 90
       50
102
RTVSPost2010PropOp46
 70
     1
102
RTVSPost2010Prop47
 90
       50
102
RTVSPost2010PropOp47
 70
     1
102
RTVSPost2010Prop48
 90
       50
102
RTVSPost2010PropOp48
 70
     1
102
RTVSPost2010Prop49
280
     0
102
RTVSPost2010PropOp49
 70
     1
102
RTVSPost2010Prop50
 90
       50
102
RTVSPost2010PropOp50
 70
     1
102
RTVSPost2010Prop51ColorIndex
 90
      256
102
RTVSPost2010Prop51ColorRGB
 90
-16777216
102
RTVSPost2010PropOp51
 70
     0
102
RTVSPost2010Prop52
140
1.0
102
RTVSPost2010PropOp52
 70
     0
102
RTVSPost2010Prop53
 90
        2
102
RTVSPost2010PropOp53
 70
     1
102
RTVSPost2010Prop54
  1
strokes_ogs.tif
102
RTVSPost2010PropOp54
 70
     1
102
RTVSPost2010Prop55
280
     0
102
RTVSPost2010PropOp55
 70
     1
102
RTVSPost2010Prop56
140
1.0
102
RTVSPost2010PropOp56
 70
     1
102
RTVSPost2010Prop57
140
1.0
102
RTVSPost2010PropOp57
 70
     1
102
RTVSPropertyOp0
 70
     1
102
RTVSPropertyOp1
 70
     1
102
RTVSPropertyOp2
 70
     1
102
RTVSPropertyOp3
 70
     1
102
RTVSPropertyOp4
 70
     1
102
RTVSPropertyOp5
 70
     1
102
RTVSPropertyOp6
 70
     1
102
RTVSPropertyOp7
 70
     1
102
RTVSPropertyOp8
 70
     1
102
RTVSPropertyOp9
 70
     1
102
RTVSPropertyOp10
 70
     1
102
RTVSPropertyOp11
 70
     1
102
RTVSPropertyOp12
 70
     1
102
RTVSPropertyOp13
 70
     1
102
RTVSPropertyOp14
 70
     1
102
RTVSPropertyOp15
 70
     1
102
RTVSPropertyOp16
 70
     1
102
RTVSPropertyOp17
 70
     1
102
RTVSPropertyOp18
 70
     1
102
RTVSPropertyOp19
 70
     1
102
RTVSPropertyOp20
 70
     1
102
RTVSPropertyOp21
 70
     1
102
RTVSPropertyOp22
 70
     1
102
RTVSPropertyOp23
 70
     1
102
RTVSPropertyOp24
 70
     1
102
RTVSPropertyOp25
 70
     1
102
RTVSPropertyOp26
 70
     1
102
RTVSPropertyOp27
 70
     1
102
RTVSPropertyOp28
 70
     1
102
RTVSPropertyOp29
 70
     1
102
RTVSPropertyOp30
 70
     1
102
RTVSPropertyOp31
 70
     1
102
RTVSPropertyOp32
 70
     1
102
RTVSPropertyOp33
 70
     1
102
RTVSPropertyOp34
 70
     1
102
RTVSPropertyOp35
 70
     1
102
RTVSPropertyOp36
 70
     1
102
RTVSPropertyOp37
 70
     1
102
RTVSPropertyOp38
 70
     1
102
RTVSPropertyOp39
 70
     1
102
RTVSPropertyOp40
 70
     1
102
RTVSPropertyOp41
 70
     1
102
RTVSPropertyOp42
 70
     1
102
RTVSPropertyOp43
 70
     1
102
RTVSPropertyOp44
 70
     1
102
RTVSPropertyOp45
 70
     1
102
RTVSPropertyOp46
 70
     1
102
RTVSPropertyOp47
 70
     1
102
RTVSPropertyOp48
 70
     1
102
RTVSPropertyOp49
 70
     1
102
RTVSPropertyOp50
 70
     1
102
RTVSPropertyOp51
 70
     0
102
RTVSPropertyOp52
 70
     0
102
RTVSPropertyOp53
 70
     1
102
RTVSPropertyOp54
 70
     1
102
RTVSPropertyOp55
 70
     1
102
RTVSPropertyOp56
 70
     1
102
RTVSPropertyOp57
 70
     1
102
RTVSPropertyOp58
 70
     1
102
RTVSPropertyOp59
 70
     1
102
RTVSPropertyOp60
 70
     1
102
RTVSPropertyOp61
 70
     1
102
RTVSPropertyOp62
 70
     1
  0
XRECORD
  5
44D
102
{ACAD_REACTORS
330
44C
102
}
330
44C
100
AcDbXrecord
280
     1
102
RTVSPost2010Prop28
280
     0
102
RTVSPost2010PropOp28
 70
     1
102
RTVSPost2010Prop29
280
     1
102
RTVSPost2010PropOp29
 70
     1
102
RTVSPost2010Prop30
280
     1
102
RTVSPost2010PropOp30
 70
     1
102
RTVSPost2010Prop31
280
     0
102
RTVSPost2010PropOp31
 70
     1
102
RTVSPost2010Prop32
280
     0
102
RTVSPost2010PropOp32
 70
     1
102
RTVSPost2010Prop33
280
     0
102
RTVSPost2010PropOp33
 70
     1
102
RTVSPost2010Prop34
280
     0
102
RTVSPost2010PropOp34
 70
     1
102
RTVSPost2010Prop35
280
     0
102
RTVSPost2010PropOp35
 70
     1
102
RTVSPost2010Prop36
280
     0
102
RTVSPost2010PropOp36
 70
     1
102
RTVSPost2010Prop37
 90
       50
102
RTVSPost2010PropOp37
 70
     1
102
RTVSPost2010Prop38
140
0.0
102
RTVSPost2010PropOp38
 70
     1
102
RTVSPost2010Prop39
140
1.0
102
RTVSPost2010PropOp39
 70
     1
102
RTVSPost2010Prop40
 90
        0
102
RTVSPost2010PropOp40
 70
     1
102
RTVSPost2010Prop41ColorIndex
 90
       18
102
RTVSPost2010Prop41ColorRGB
 90
        0
102
RTVSPost2010PropOp41
 70
     1
102
RTVSPost2010Prop42
 90
       50
102
RTVSPost2010PropOp42
 70
     1
102
RTVSPost2010Prop43
 90
        3
102
RTVSPost2010PropOp43
 70
     1
102
RTVSPost2010Prop44ColorIndex
 90
        5
102
RTVSPost2010Prop44ColorRGB
 90
      255
102
RTVSPost2010PropOp44
 70
     1
102
RTVSPost2010Prop45
280
     0
102
RTVSPost2010PropOp45
 70
     1
102
RTVSPost2010Prop46
 90
       50
102
RTVSPost2010PropOp46
 70
     1
102
RTVSPost2010Prop47
 90
       50
102
RTVSPost2010PropOp47
 70
     1
102
RTVSPost2010Prop48
 90
       50
102
RTVSPost2010PropOp48
 70
     1
102
RTVSPost2010Prop49
280
     0
102
RTVSPost2010PropOp49
 70
     1
102
RTVSPost2010Prop50
 90
       50
102
RTVSPost2010PropOp50
 70
     1
102
RTVSPost2010Prop51ColorIndex
 90
      256
102
RTVSPost2010Prop51ColorRGB
 90
-16777216
102
RTVSPost2010PropOp51
 70
     0
102
RTVSPost2010Prop52
140
1.0
102
RTVSPost2010PropOp52
 70
     0
102
RTVSPost2010Prop53
 90
        2
102
RTVSPost2010PropOp53
 70
     1
102
RTVSPost2010Prop54
  1
strokes_ogs.tif
102
RTVSPost2010PropOp54
 70
     1
102
RTVSPost2010Prop55
280
     0
102
RTVSPost2010PropOp55
 70
     1
102
RTVSPost2010Prop56
140
1.0
102
RTVSPost2010PropOp56
 70
     1
102
RTVSPost2010Prop57
140
1.0
102
RTVSPost2010PropOp57
 70
     1
102
RTVSPropertyOp0
 70
     1
102
RTVSPropertyOp1
 70
     1
102
RTVSPropertyOp2
 70
     1
102
RTVSPropertyOp3
 70
     1
102
RTVSPropertyOp4
 70
     1
102
RTVSPropertyOp5
 70
     1
102
RTVSPropertyOp6
 70
     1
102
RTVSPropertyOp7
 70
     1
102
RTVSPropertyOp8
 70
     1
102
RTVSPropertyOp9
 70
     1
102
RTVSPropertyOp10
 70
     1
102
RTVSPropertyOp11
 70
     1
102
RTVSPropertyOp12
 70
     1
102
RTVSPropertyOp13
 70
     1
102
RTVSPropertyOp14
 70
     1
102
RTVSPropertyOp15
 70
     1
102
RTVSPropertyOp16
 70
     1
102
RTVSPropertyOp17
 70
     1
102
RTVSPropertyOp18
 70
     1
102
RTVSPropertyOp19
 70
     1
102
RTVSPropertyOp20
 70
     1
102
RTVSPropertyOp21
 70
     1
102
RTVSPropertyOp22
 70
     1
102
RTVSPropertyOp23
 70
     1
102
RTVSPropertyOp24
 70
     1
102
RTVSPropertyOp25
 70
     1
102
RTVSPropertyOp26
 70
     1
102
RTVSPropertyOp27
 70
     1
102
RTVSPropertyOp28
 70
     1
102
RTVSPropertyOp29
 70
     1
102
RTVSPropertyOp30
 70
     1
102
RTVSPropertyOp31
 70
     1
102
RTVSPropertyOp32
 70
     1
102
RTVSPropertyOp33
 70
     1
102
RTVSPropertyOp34
 70
     1
102
RTVSPropertyOp35
 70
     1
102
RTVSPropertyOp36
 70
     1
102
RTVSPropertyOp37
 70
     1
102
RTVSPropertyOp38
 70
     1
102
RTVSPropertyOp39
 70
     1
102
RTVSPropertyOp40
 70
     1
102
RTVSPropertyOp41
 70
     1
102
RTVSPropertyOp42
 70
     1
102
RTVSPropertyOp43
 70
     1
102
RTVSPropertyOp44
 70
     1
102
RTVSPropertyOp45
 70
     1
102
RTVSPropertyOp46
 70
     1
102
RTVSPropertyOp47
 70
     1
102
RTVSPropertyOp48
 70
     1
102
RTVSPropertyOp49
 70
     1
102
RTVSPropertyOp50
 70
     1
102
RTVSPropertyOp51
 70
     0
102
RTVSPropertyOp52
 70
     0
102
RTVSPropertyOp53
 70
     1
102
RTVSPropertyOp54
 70
     1
102
RTVSPropertyOp55
 70
     1
102
RTVSPropertyOp56
 70
     1
102
RTVSPropertyOp57
 70
     1
102
RTVSPropertyOp58
 70
     1
102
RTVSPropertyOp59
 70
     1
102
RTVSPropertyOp60
 70
     1
102
RTVSPropertyOp61
 70
     1
102
RTVSPropertyOp62
 70
     1
  0
XRECORD
  5
451
102
{ACAD_REACTORS
330
450
102
}
330
450
100
AcDbXrecord
280
     1
102
RTVSPost2010Prop28
280
     0
102
RTVSPost2010PropOp28
 70
     1
102
RTVSPost2010Prop29
280
     1
102
RTVSPost2010PropOp29
 70
     1
102
RTVSPost2010Prop30
280
     1
102
RTVSPost2010PropOp30
 70
     1
102
RTVSPost2010Prop31
280
     0
102
RTVSPost2010PropOp31
 70
     1
102
RTVSPost2010Prop32
280
     0
102
RTVSPost2010PropOp32
 70
     1
102
RTVSPost2010Prop33
280
     0
102
RTVSPost2010PropOp33
 70
     1
102
RTVSPost2010Prop34
280
     0
102
RTVSPost2010PropOp34
 70
     1
102
RTVSPost2010Prop35
280
     0
102
RTVSPost2010PropOp35
 70
     1
102
RTVSPost2010Prop36
280
     0
102
RTVSPost2010PropOp36
 70
     1
102
RTVSPost2010Prop37
 90
       50
102
RTVSPost2010PropOp37
 70
     1
102
RTVSPost2010Prop38
140
0.0
102
RTVSPost2010PropOp38
 70
     1
102
RTVSPost2010Prop39
140
1.0
102
RTVSPost2010PropOp39
 70
     1
102
RTVSPost2010Prop40
 90
        0
102
RTVSPost2010PropOp40
 70
     1
102
RTVSPost2010Prop41ColorIndex
 90
       18
102
RTVSPost2010Prop41ColorRGB
 90
        0
102
RTVSPost2010PropOp41
 70
     1
102
RTVSPost2010Prop42
 90
       50
102
RTVSPost2010PropOp42
 70
     1
102
RTVSPost2010Prop43
 90
        3
102
RTVSPost2010PropOp43
 70
     1
102
RTVSPost2010Prop44ColorIndex
 90
        5
102
RTVSPost2010Prop44ColorRGB
 90
      255
102
RTVSPost2010PropOp44
 70
     1
102
RTVSPost2010Prop45
280
     0
102
RTVSPost2010PropOp45
 70
     1
102
RTVSPost2010Prop46
 90
       50
102
RTVSPost2010PropOp46
 70
     1
102
RTVSPost2010Prop47
 90
       50
102
RTVSPost2010PropOp47
 70
     1
102
RTVSPost2010Prop48
 90
       50
102
RTVSPost2010PropOp48
 70
     1
102
RTVSPost2010Prop49
280
     0
102
RTVSPost2010PropOp49
 70
     1
102
RTVSPost2010Prop50
 90
       50
102
RTVSPost2010PropOp50
 70
     1
102
RTVSPost2010Prop51ColorIndex
 90
      256
102
RTVSPost2010Prop51ColorRGB
 90
-16777216
102
RTVSPost2010PropOp51
 70
     0
102
RTVSPost2010Prop52
140
1.0
102
RTVSPost2010PropOp52
 70
     0
102
RTVSPost2010Prop53
 90
        2
102
RTVSPost2010PropOp53
 70
     1
102
RTVSPost2010Prop54
  1
strokes_ogs.tif
102
RTVSPost2010PropOp54
 70
     1
102
RTVSPost2010Prop55
280
     0
102
RTVSPost2010PropOp55
 70
     1
102
RTVSPost2010Prop56
140
1.0
102
RTVSPost2010PropOp56
 70
     1
102
RTVSPost2010Prop57
140
1.0
102
RTVSPost2010PropOp57
 70
     1
102
RTVSPropertyOp0
 70
     1
102
RTVSPropertyOp1
 70
     1
102
RTVSPropertyOp2
 70
     1
102
RTVSPropertyOp3
 70
     1
102
RTVSPropertyOp4
 70
     1
102
RTVSPropertyOp5
 70
     1
102
RTVSPropertyOp6
 70
     1
102
RTVSPropertyOp7
 70
     1
102
RTVSPropertyOp8
 70
     1
102
RTVSPropertyOp9
 70
     1
102
RTVSPropertyOp10
 70
     1
102
RTVSPropertyOp11
 70
     1
102
RTVSPropertyOp12
 70
     1
102
RTVSPropertyOp13
 70
     1
102
RTVSPropertyOp14
 70
     1
102
RTVSPropertyOp15
 70
     1
102
RTVSPropertyOp16
 70
     1
102
RTVSPropertyOp17
 70
     1
102
RTVSPropertyOp18
 70
     1
102
RTVSPropertyOp19
 70
     1
102
RTVSPropertyOp20
 70
     1
102
RTVSPropertyOp21
 70
     1
102
RTVSPropertyOp22
 70
     1
102
RTVSPropertyOp23
 70
     1
102
RTVSPropertyOp24
 70
     1
102
RTVSPropertyOp25
 70
     1
102
RTVSPropertyOp26
 70
     1
102
RTVSPropertyOp27
 70
     1
102
RTVSPropertyOp28
 70
     1
102
RTVSPropertyOp29
 70
     1
102
RTVSPropertyOp30
 70
     1
102
RTVSPropertyOp31
 70
     1
102
RTVSPropertyOp32
 70
     1
102
RTVSPropertyOp33
 70
     1
102
RTVSPropertyOp34
 70
     1
102
RTVSPropertyOp35
 70
     1
102
RTVSPropertyOp36
 70
     1
102
RTVSPropertyOp37
 70
     1
102
RTVSPropertyOp38
 70
     1
102
RTVSPropertyOp39
 70
     1
102
RTVSPropertyOp40
 70
     1
102
RTVSPropertyOp41
 70
     1
102
RTVSPropertyOp42
 70
     1
102
RTVSPropertyOp43
 70
     1
102
RTVSPropertyOp44
 70
     1
102
RTVSPropertyOp45
 70
     1
102
RTVSPropertyOp46
 70
     1
102
RTVSPropertyOp47
 70
     1
102
RTVSPropertyOp48
 70
     1
102
RTVSPropertyOp49
 70
     1
102
RTVSPropertyOp50
 70
     1
102
RTVSPropertyOp51
 70
     0
102
RTVSPropertyOp52
 70
     0
102
RTVSPropertyOp53
 70
     1
102
RTVSPropertyOp54
 70
     1
102
RTVSPropertyOp55
 70
     1
102
RTVSPropertyOp56
 70
     1
102
RTVSPropertyOp57
 70
     1
102
RTVSPropertyOp58
 70
     1
102
RTVSPropertyOp59
 70
     1
102
RTVSPropertyOp60
 70
     1
102
RTVSPropertyOp61
 70
     1
102
RTVSPropertyOp62
 70
     1
  0
XRECORD
  5
46B
102
{ACAD_REACTORS
330
46A
102
}
330
46A
100
AcDbXrecord
280
     1
102
RTVSPost2010Prop28
280
     0
102
RTVSPost2010PropOp28
 70
     1
102
RTVSPost2010Prop29
280
     1
102
RTVSPost2010PropOp29
 70
     1
102
RTVSPost2010Prop30
280
     1
102
RTVSPost2010PropOp30
 70
     1
102
RTVSPost2010Prop31
280
     0
102
RTVSPost2010PropOp31
 70
     1
102
RTVSPost2010Prop32
280
     0
102
RTVSPost2010PropOp32
 70
     1
102
RTVSPost2010Prop33
280
     0
102
RTVSPost2010PropOp33
 70
     1
102
RTVSPost2010Prop34
280
     0
102
RTVSPost2010PropOp34
 70
     1
102
RTVSPost2010Prop35
280
     0
102
RTVSPost2010PropOp35
 70
     1
102
RTVSPost2010Prop36
280
     0
102
RTVSPost2010PropOp36
 70
     1
102
RTVSPost2010Prop37
 90
       50
102
RTVSPost2010PropOp37
 70
     0
102
RTVSPost2010Prop38
140
0.0
102
RTVSPost2010PropOp38
 70
     0
102
RTVSPost2010Prop39
140
1.0
102
RTVSPost2010PropOp39
 70
     0
102
RTVSPost2010Prop40
 90
        0
102
RTVSPost2010PropOp40
 70
     0
102
RTVSPost2010Prop41ColorIndex
 90
       18
102
RTVSPost2010Prop41ColorRGB
 90
        0
102
RTVSPost2010PropOp41
 70
     0
102
RTVSPost2010Prop42
 90
       50
102
RTVSPost2010PropOp42
 70
     0
102
RTVSPost2010Prop43
 90
        3
102
RTVSPost2010PropOp43
 70
     0
102
RTVSPost2010Prop44ColorIndex
 90
        5
102
RTVSPost2010Prop44ColorRGB
 90
      255
102
RTVSPost2010PropOp44
 70
     0
102
RTVSPost2010Prop45
280
     0
102
RTVSPost2010PropOp45
 70
     1
102
RTVSPost2010Prop46
 90
       50
102
RTVSPost2010PropOp46
 70
     0
102
RTVSPost2010Prop47
 90
       50
102
RTVSPost2010PropOp47
 70
     0
102
RTVSPost2010Prop48
 90
       50
102
RTVSPost2010PropOp48
 70
     0
102
RTVSPost2010Prop49
280
     0
102
RTVSPost2010PropOp49
 70
     1
102
RTVSPost2010Prop50
 90
       50
102
RTVSPost2010PropOp50
 70
     0
102
RTVSPost2010Prop51ColorIndex
 90
      256
102
RTVSPost2010Prop51ColorRGB
 90
-16777216
102
RTVSPost2010PropOp51
 70
     0
102
RTVSPost2010Prop52
140
1.0
102
RTVSPost2010PropOp52
 70
     0
102
RTVSPost2010Prop53
 90
        2
102
RTVSPost2010PropOp53
 70
     0
102
RTVSPost2010Prop54
  1
strokes_ogs.tif
102
RTVSPost2010PropOp54
 70
     0
102
RTVSPost2010Prop55
280
     0
102
RTVSPost2010PropOp55
 70
     1
102
RTVSPost2010Prop56
140
1.0
102
RTVSPost2010PropOp56
 70
     0
102
RTVSPost2010Prop57
140
1.0
102
RTVSPost2010PropOp57
 70
     0
102
RTVSPropertyOp0
 70
     0
102
RTVSPropertyOp1
 70
     0
102
RTVSPropertyOp2
 70
     0
102
RTVSPropertyOp3
 70
     0
102
RTVSPropertyOp4
 70
     0
102
RTVSPropertyOp5
 70
     0
102
RTVSPropertyOp6
 70
     0
102
RTVSPropertyOp7
 70
     0
102
RTVSPropertyOp8
 70
     0
102
RTVSPropertyOp9
 70
     0
102
RTVSPropertyOp10
 70
     0
102
RTVSPropertyOp11
 70
     0
102
RTVSPropertyOp12
 70
     0
102
RTVSPropertyOp13
 70
     0
102
RTVSPropertyOp14
 70
     2
102
RTVSPropertyOp15
 70
     0
102
RTVSPropertyOp16
 70
     0
102
RTVSPropertyOp17
 70
     0
102
RTVSPropertyOp18
 70
     0
102
RTVSPropertyOp19
 70
     0
102
RTVSPropertyOp20
 70
     0
102
RTVSPropertyOp21
 70
     0
102
RTVSPropertyOp22
 70
     0
102
RTVSPropertyOp23
 70
     0
102
RTVSPropertyOp24
 70
     0
102
RTVSPropertyOp25
 70
     0
102
RTVSPropertyOp26
 70
     0
102
RTVSPropertyOp27
 70
     0
102
RTVSPropertyOp28
 70
     1
102
RTVSPropertyOp29
 70
     1
102
RTVSPropertyOp30
 70
     1
102
RTVSPropertyOp31
 70
     1
102
RTVSPropertyOp32
 70
     1
102
RTVSPropertyOp33
 70
     1
102
RTVSPropertyOp34
 70
     1
102
RTVSPropertyOp35
 70
     1
102
RTVSPropertyOp36
 70
     1
102
RTVSPropertyOp37
 70
     0
102
RTVSPropertyOp38
 70
     0
102
RTVSPropertyOp39
 70
     0
102
RTVSPropertyOp40
 70
     0
102
RTVSPropertyOp41
 70
     0
102
RTVSPropertyOp42
 70
     0
102
RTVSPropertyOp43
 70
     0
102
RTVSPropertyOp44
 70
     0
102
RTVSPropertyOp45
 70
     1
102
RTVSPropertyOp46
 70
     0
102
RTVSPropertyOp47
 70
     0
102
RTVSPropertyOp48
 70
     0
102
RTVSPropertyOp49
 70
     1
102
RTVSPropertyOp50
 70
     0
102
RTVSPropertyOp51
 70
     0
102
RTVSPropertyOp52
 70
     0
102
RTVSPropertyOp53
 70
     0
102
RTVSPropertyOp54
 70
     0
102
RTVSPropertyOp55
 70
     1
102
RTVSPropertyOp56
 70
     0
102
RTVSPropertyOp57
 70
     0
102
RTVSPropertyOp58
 70
     0
102
RTVSPropertyOp59
 70
     0
102
RTVSPropertyOp60
 70
     0
102
RTVSPropertyOp61
 70
     0
102
RTVSPropertyOp62
 70
     0
  0
XRECORD
  5
459
102
{ACAD_REACTORS
330
458
102
}
330
458
100
AcDbXrecord
280
     1
102
RTVSPost2010Prop28
280
     0
102
RTVSPost2010PropOp28
 70
     1
102
RTVSPost2010Prop29
280
     1
102
RTVSPost2010PropOp29
 70
     1
102
RTVSPost2010Prop30
280
     1
102
RTVSPost2010PropOp30
 70
     1
102
RTVSPost2010Prop31
280
     0
102
RTVSPost2010PropOp31
 70
     1
102
RTVSPost2010Prop32
280
     0
102
RTVSPost2010PropOp32
 70
     1
102
RTVSPost2010Prop33
280
     0
102
RTVSPost2010PropOp33
 70
     1
102
RTVSPost2010Prop34
280
     0
102
RTVSPost2010PropOp34
 70
     1
102
RTVSPost2010Prop35
280
     0
102
RTVSPost2010PropOp35
 70
     1
102
RTVSPost2010Prop36
280
     0
102
RTVSPost2010PropOp36
 70
     1
102
RTVSPost2010Prop37
 90
       50
102
RTVSPost2010PropOp37
 70
     1
102
RTVSPost2010Prop38
140
0.0
102
RTVSPost2010PropOp38
 70
     1
102
RTVSPost2010Prop39
140
1.0
102
RTVSPost2010PropOp39
 70
     1
102
RTVSPost2010Prop40
 90
        0
102
RTVSPost2010PropOp40
 70
     1
102
RTVSPost2010Prop41ColorIndex
 90
       18
102
RTVSPost2010Prop41ColorRGB
 90
        0
102
RTVSPost2010PropOp41
 70
     1
102
RTVSPost2010Prop42
 90
       50
102
RTVSPost2010PropOp42
 70
     1
102
RTVSPost2010Prop43
 90
        3
102
RTVSPost2010PropOp43
 70
     1
102
RTVSPost2010Prop44ColorIndex
 90
        5
102
RTVSPost2010Prop44ColorRGB
 90
      255
102
RTVSPost2010PropOp44
 70
     1
102
RTVSPost2010Prop45
280
     0
102
RTVSPost2010PropOp45
 70
     1
102
RTVSPost2010Prop46
 90
       50
102
RTVSPost2010PropOp46
 70
     1
102
RTVSPost2010Prop47
 90
       50
102
RTVSPost2010PropOp47
 70
     1
102
RTVSPost2010Prop48
 90
       50
102
RTVSPost2010PropOp48
 70
     1
102
RTVSPost2010Prop49
280
     0
102
RTVSPost2010PropOp49
 70
     1
102
RTVSPost2010Prop50
 90
       50
102
RTVSPost2010PropOp50
 70
     1
102
RTVSPost2010Prop51ColorIndex
 90
      256
102
RTVSPost2010Prop51ColorRGB
 90
-16777216
102
RTVSPost2010PropOp51
 70
     0
102
RTVSPost2010Prop52
140
1.0
102
RTVSPost2010PropOp52
 70
     0
102
RTVSPost2010Prop53
 90
        2
102
RTVSPost2010PropOp53
 70
     1
102
RTVSPost2010Prop54
  1
strokes_ogs.tif
102
RTVSPost2010PropOp54
 70
     1
102
RTVSPost2010Prop55
280
     0
102
RTVSPost2010PropOp55
 70
     1
102
RTVSPost2010Prop56
140
1.0
102
RTVSPost2010PropOp56
 70
     1
102
RTVSPost2010Prop57
140
1.0
102
RTVSPost2010PropOp57
 70
     1
102
RTVSPropertyOp0
 70
     1
102
RTVSPropertyOp1
 70
     1
102
RTVSPropertyOp2
 70
     1
102
RTVSPropertyOp3
 70
     1
102
RTVSPropertyOp4
 70
     1
102
RTVSPropertyOp5
 70
     1
102
RTVSPropertyOp6
 70
     1
102
RTVSPropertyOp7
 70
     1
102
RTVSPropertyOp8
 70
     1
102
RTVSPropertyOp9
 70
     1
102
RTVSPropertyOp10
 70
     1
102
RTVSPropertyOp11
 70
     1
102
RTVSPropertyOp12
 70
     1
102
RTVSPropertyOp13
 70
     1
102
RTVSPropertyOp14
 70
     1
102
RTVSPropertyOp15
 70
     1
102
RTVSPropertyOp16
 70
     1
102
RTVSPropertyOp17
 70
     1
102
RTVSPropertyOp18
 70
     1
102
RTVSPropertyOp19
 70
     1
102
RTVSPropertyOp20
 70
     1
102
RTVSPropertyOp21
 70
     1
102
RTVSPropertyOp22
 70
     1
102
RTVSPropertyOp23
 70
     1
102
RTVSPropertyOp24
 70
     1
102
RTVSPropertyOp25
 70
     1
102
RTVSPropertyOp26
 70
     1
102
RTVSPropertyOp27
 70
     1
102
RTVSPropertyOp28
 70
     1
102
RTVSPropertyOp29
 70
     1
102
RTVSPropertyOp30
 70
     1
102
RTVSPropertyOp31
 70
     1
102
RTVSPropertyOp32
 70
     1
102
RTVSPropertyOp33
 70
     1
102
RTVSPropertyOp34
 70
     1
102
RTVSPropertyOp35
 70
     1
102
RTVSPropertyOp36
 70
     1
102
RTVSPropertyOp37
 70
     1
102
RTVSPropertyOp38
 70
     1
102
RTVSPropertyOp39
 70
     1
102
RTVSPropertyOp40
 70
     1
102
RTVSPropertyOp41
 70
     1
102
RTVSPropertyOp42
 70
     1
102
RTVSPropertyOp43
 70
     1
102
RTVSPropertyOp44
 70
     1
102
RTVSPropertyOp45
 70
     1
102
RTVSPropertyOp46
 70
     1
102
RTVSPropertyOp47
 70
     1
102
RTVSPropertyOp48
 70
     1
102
RTVSPropertyOp49
 70
     1
102
RTVSPropertyOp50
 70
     1
102
RTVSPropertyOp51
 70
     0
102
RTVSPropertyOp52
 70
     0
102
RTVSPropertyOp53
 70
     1
102
RTVSPropertyOp54
 70
     1
102
RTVSPropertyOp55
 70
     1
102
RTVSPropertyOp56
 70
     1
102
RTVSPropertyOp57
 70
     1
102
RTVSPropertyOp58
 70
     1
102
RTVSPropertyOp59
 70
     1
102
RTVSPropertyOp60
 70
     1
102
RTVSPropertyOp61
 70
     1
102
RTVSPropertyOp62
 70
     1
  0
XRECORD
  5
43D
102
{ACAD_REACTORS
330
43C
102
}
330
43C
100
AcDbXrecord
280
     1
102
RTVSPost2010Prop28
280
     0
102
RTVSPost2010PropOp28
 70
     1
102
RTVSPost2010Prop29
280
     1
102
RTVSPost2010PropOp29
 70
     1
102
RTVSPost2010Prop30
280
     1
102
RTVSPost2010PropOp30
 70
     1
102
RTVSPost2010Prop31
280
     0
102
RTVSPost2010PropOp31
 70
     1
102
RTVSPost2010Prop32
280
     0
102
RTVSPost2010PropOp32
 70
     1
102
RTVSPost2010Prop33
280
     0
102
RTVSPost2010PropOp33
 70
     1
102
RTVSPost2010Prop34
280
     0
102
RTVSPost2010PropOp34
 70
     1
102
RTVSPost2010Prop35
280
     0
102
RTVSPost2010PropOp35
 70
     1
102
RTVSPost2010Prop36
280
     0
102
RTVSPost2010PropOp36
 70
     1
102
RTVSPost2010Prop37
 90
       50
102
RTVSPost2010PropOp37
 70
     1
102
RTVSPost2010Prop38
140
0.0
102
RTVSPost2010PropOp38
 70
     1
102
RTVSPost2010Prop39
140
1.0
102
RTVSPost2010PropOp39
 70
     1
102
RTVSPost2010Prop40
 90
        0
102
RTVSPost2010PropOp40
 70
     1
102
RTVSPost2010Prop41ColorIndex
 90
       18
102
RTVSPost2010Prop41ColorRGB
 90
        0
102
RTVSPost2010PropOp41
 70
     1
102
RTVSPost2010Prop42
 90
       50
102
RTVSPost2010PropOp42
 70
     1
102
RTVSPost2010Prop43
 90
        3
102
RTVSPost2010PropOp43
 70
     1
102
RTVSPost2010Prop44ColorIndex
 90
        5
102
RTVSPost2010Prop44ColorRGB
 90
      255
102
RTVSPost2010PropOp44
 70
     1
102
RTVSPost2010Prop45
280
     0
102
RTVSPost2010PropOp45
 70
     1
102
RTVSPost2010Prop46
 90
       50
102
RTVSPost2010PropOp46
 70
     1
102
RTVSPost2010Prop47
 90
       50
102
RTVSPost2010PropOp47
 70
     1
102
RTVSPost2010Prop48
 90
       50
102
RTVSPost2010PropOp48
 70
     1
102
RTVSPost2010Prop49
280
     0
102
RTVSPost2010PropOp49
 70
     1
102
RTVSPost2010Prop50
 90
       50
102
RTVSPost2010PropOp50
 70
     1
102
RTVSPost2010Prop51ColorIndex
 90
      256
102
RTVSPost2010Prop51ColorRGB
 90
-16777216
102
RTVSPost2010PropOp51
 70
     0
102
RTVSPost2010Prop52
140
1.0
102
RTVSPost2010PropOp52
 70
     0
102
RTVSPost2010Prop53
 90
        2
102
RTVSPost2010PropOp53
 70
     1
102
RTVSPost2010Prop54
  1
strokes_ogs.tif
102
RTVSPost2010PropOp54
 70
     1
102
RTVSPost2010Prop55
280
     0
102
RTVSPost2010PropOp55
 70
     1
102
RTVSPost2010Prop56
140
1.0
102
RTVSPost2010PropOp56
 70
     1
102
RTVSPost2010Prop57
140
1.0
102
RTVSPost2010PropOp57
 70
     1
102
RTVSPropertyOp0
 70
     1
102
RTVSPropertyOp1
 70
     1
102
RTVSPropertyOp2
 70
     1
102
RTVSPropertyOp3
 70
     1
102
RTVSPropertyOp4
 70
     1
102
RTVSPropertyOp5
 70
     1
102
RTVSPropertyOp6
 70
     1
102
RTVSPropertyOp7
 70
     1
102
RTVSPropertyOp8
 70
     1
102
RTVSPropertyOp9
 70
     1
102
RTVSPropertyOp10
 70
     1
102
RTVSPropertyOp11
 70
     1
102
RTVSPropertyOp12
 70
     1
102
RTVSPropertyOp13
 70
     1
102
RTVSPropertyOp14
 70
     1
102
RTVSPropertyOp15
 70
     1
102
RTVSPropertyOp16
 70
     1
102
RTVSPropertyOp17
 70
     1
102
RTVSPropertyOp18
 70
     1
102
RTVSPropertyOp19
 70
     1
102
RTVSPropertyOp20
 70
     1
102
RTVSPropertyOp21
 70
     1
102
RTVSPropertyOp22
 70
     1
102
RTVSPropertyOp23
 70
     1
102
RTVSPropertyOp24
 70
     1
102
RTVSPropertyOp25
 70
     1
102
RTVSPropertyOp26
 70
     1
102
RTVSPropertyOp27
 70
     1
102
RTVSPropertyOp28
 70
     1
102
RTVSPropertyOp29
 70
     1
102
RTVSPropertyOp30
 70
     1
102
RTVSPropertyOp31
 70
     1
102
RTVSPropertyOp32
 70
     1
102
RTVSPropertyOp33
 70
     1
102
RTVSPropertyOp34
 70
     1
102
RTVSPropertyOp35
 70
     1
102
RTVSPropertyOp36
 70
     1
102
RTVSPropertyOp37
 70
     1
102
RTVSPropertyOp38
 70
     1
102
RTVSPropertyOp39
 70
     1
102
RTVSPropertyOp40
 70
     1
102
RTVSPropertyOp41
 70
     1
102
RTVSPropertyOp42
 70
     1
102
RTVSPropertyOp43
 70
     1
102
RTVSPropertyOp44
 70
     1
102
RTVSPropertyOp45
 70
     1
102
RTVSPropertyOp46
 70
     1
102
RTVSPropertyOp47
 70
     1
102
RTVSPropertyOp48
 70
     1
102
RTVSPropertyOp49
 70
     1
102
RTVSPropertyOp50
 70
     1
102
RTVSPropertyOp51
 70
     0
102
RTVSPropertyOp52
 70
     0
102
RTVSPropertyOp53
 70
     1
102
RTVSPropertyOp54
 70
     1
102
RTVSPropertyOp55
 70
     1
102
RTVSPropertyOp56
 70
     1
102
RTVSPropertyOp57
 70
     1
102
RTVSPropertyOp58
 70
     1
102
RTVSPropertyOp59
 70
     1
102
RTVSPropertyOp60
 70
     1
102
RTVSPropertyOp61
 70
     1
102
RTVSPropertyOp62
 70
     1
  0
XRECORD
  5
43F
102
{ACAD_REACTORS
330
43E
102
}
330
43E
100
AcDbXrecord
280
     1
102
RTVSPost2010Prop28
280
     0
102
RTVSPost2010PropOp28
 70
     1
102
RTVSPost2010Prop29
280
     1
102
RTVSPost2010PropOp29
 70
     1
102
RTVSPost2010Prop30
280
     1
102
RTVSPost2010PropOp30
 70
     1
102
RTVSPost2010Prop31
280
     0
102
RTVSPost2010PropOp31
 70
     1
102
RTVSPost2010Prop32
280
     0
102
RTVSPost2010PropOp32
 70
     1
102
RTVSPost2010Prop33
280
     0
102
RTVSPost2010PropOp33
 70
     1
102
RTVSPost2010Prop34
280
     0
102
RTVSPost2010PropOp34
 70
     1
102
RTVSPost2010Prop35
280
     0
102
RTVSPost2010PropOp35
 70
     1
102
RTVSPost2010Prop36
280
     0
102
RTVSPost2010PropOp36
 70
     1
102
RTVSPost2010Prop37
 90
       50
102
RTVSPost2010PropOp37
 70
     1
102
RTVSPost2010Prop38
140
0.0
102
RTVSPost2010PropOp38
 70
     1
102
RTVSPost2010Prop39
140
1.0
102
RTVSPost2010PropOp39
 70
     1
102
RTVSPost2010Prop40
 90
        0
102
RTVSPost2010PropOp40
 70
     1
102
RTVSPost2010Prop41ColorIndex
 90
       18
102
RTVSPost2010Prop41ColorRGB
 90
        0
102
RTVSPost2010PropOp41
 70
     1
102
RTVSPost2010Prop42
 90
       50
102
RTVSPost2010PropOp42
 70
     1
102
RTVSPost2010Prop43
 90
        3
102
RTVSPost2010PropOp43
 70
     1
102
RTVSPost2010Prop44ColorIndex
 90
        5
102
RTVSPost2010Prop44ColorRGB
 90
      255
102
RTVSPost2010PropOp44
 70
     1
102
RTVSPost2010Prop45
280
     0
102
RTVSPost2010PropOp45
 70
     1
102
RTVSPost2010Prop46
 90
       50
102
RTVSPost2010PropOp46
 70
     1
102
RTVSPost2010Prop47
 90
       50
102
RTVSPost2010PropOp47
 70
     1
102
RTVSPost2010Prop48
 90
       50
102
RTVSPost2010PropOp48
 70
     1
102
RTVSPost2010Prop49
280
     0
102
RTVSPost2010PropOp49
 70
     1
102
RTVSPost2010Prop50
 90
       50
102
RTVSPost2010PropOp50
 70
     1
102
RTVSPost2010Prop51ColorIndex
 90
      256
102
RTVSPost2010Prop51ColorRGB
 90
-16777216
102
RTVSPost2010PropOp51
 70
     0
102
RTVSPost2010Prop52
140
1.0
102
RTVSPost2010PropOp52
 70
     0
102
RTVSPost2010Prop53
 90
        2
102
RTVSPost2010PropOp53
 70
     1
102
RTVSPost2010Prop54
  1
strokes_ogs.tif
102
RTVSPost2010PropOp54
 70
     1
102
RTVSPost2010Prop55
280
     0
102
RTVSPost2010PropOp55
 70
     1
102
RTVSPost2010Prop56
140
1.0
102
RTVSPost2010PropOp56
 70
     1
102
RTVSPost2010Prop57
140
1.0
102
RTVSPost2010PropOp57
 70
     1
102
RTVSPropertyOp0
 70
     1
102
RTVSPropertyOp1
 70
     1
102
RTVSPropertyOp2
 70
     1
102
RTVSPropertyOp3
 70
     1
102
RTVSPropertyOp4
 70
     1
102
RTVSPropertyOp5
 70
     1
102
RTVSPropertyOp6
 70
     1
102
RTVSPropertyOp7
 70
     1
102
RTVSPropertyOp8
 70
     1
102
RTVSPropertyOp9
 70
     1
102
RTVSPropertyOp10
 70
     1
102
RTVSPropertyOp11
 70
     1
102
RTVSPropertyOp12
 70
     1
102
RTVSPropertyOp13
 70
     1
102
RTVSPropertyOp14
 70
     1
102
RTVSPropertyOp15
 70
     1
102
RTVSPropertyOp16
 70
     1
102
RTVSPropertyOp17
 70
     1
102
RTVSPropertyOp18
 70
     1
102
RTVSPropertyOp19
 70
     1
102
RTVSPropertyOp20
 70
     1
102
RTVSPropertyOp21
 70
     1
102
RTVSPropertyOp22
 70
     1
102
RTVSPropertyOp23
 70
     1
102
RTVSPropertyOp24
 70
     1
102
RTVSPropertyOp25
 70
     1
102
RTVSPropertyOp26
 70
     1
102
RTVSPropertyOp27
 70
     1
102
RTVSPropertyOp28
 70
     1
102
RTVSPropertyOp29
 70
     1
102
RTVSPropertyOp30
 70
     1
102
RTVSPropertyOp31
 70
     1
102
RTVSPropertyOp32
 70
     1
102
RTVSPropertyOp33
 70
     1
102
RTVSPropertyOp34
 70
     1
102
RTVSPropertyOp35
 70
     1
102
RTVSPropertyOp36
 70
     1
102
RTVSPropertyOp37
 70
     1
102
RTVSPropertyOp38
 70
     1
102
RTVSPropertyOp39
 70
     1
102
RTVSPropertyOp40
 70
     1
102
RTVSPropertyOp41
 70
     1
102
RTVSPropertyOp42
 70
     1
102
RTVSPropertyOp43
 70
     1
102
RTVSPropertyOp44
 70
     1
102
RTVSPropertyOp45
 70
     1
102
RTVSPropertyOp46
 70
     1
102
RTVSPropertyOp47
 70
     1
102
RTVSPropertyOp48
 70
     1
102
RTVSPropertyOp49
 70
     1
102
RTVSPropertyOp50
 70
     1
102
RTVSPropertyOp51
 70
     0
102
RTVSPropertyOp52
 70
     0
102
RTVSPropertyOp53
 70
     1
102
RTVSPropertyOp54
 70
     1
102
RTVSPropertyOp55
 70
     1
102
RTVSPropertyOp56
 70
     1
102
RTVSPropertyOp57
 70
     1
102
RTVSPropertyOp58
 70
     1
102
RTVSPropertyOp59
 70
     1
102
RTVSPropertyOp60
 70
     1
102
RTVSPropertyOp61
 70
     1
102
RTVSPropertyOp62
 70
     1
  0
XRECORD
  5
441
102
{ACAD_REACTORS
330
440
102
}
330
440
100
AcDbXrecord
280
     1
102
RTVSPost2010Prop28
280
     0
102
RTVSPost2010PropOp28
 70
     1
102
RTVSPost2010Prop29
280
     1
102
RTVSPost2010PropOp29
 70
     1
102
RTVSPost2010Prop30
280
     1
102
RTVSPost2010PropOp30
 70
     1
102
RTVSPost2010Prop31
280
     0
102
RTVSPost2010PropOp31
 70
     1
102
RTVSPost2010Prop32
280
     0
102
RTVSPost2010PropOp32
 70
     1
102
RTVSPost2010Prop33
280
     0
102
RTVSPost2010PropOp33
 70
     1
102
RTVSPost2010Prop34
280
     0
102
RTVSPost2010PropOp34
 70
     1
102
RTVSPost2010Prop35
280
     0
102
RTVSPost2010PropOp35
 70
     1
102
RTVSPost2010Prop36
280
     0
102
RTVSPost2010PropOp36
 70
     1
102
RTVSPost2010Prop37
 90
       50
102
RTVSPost2010PropOp37
 70
     1
102
RTVSPost2010Prop38
140
0.0
102
RTVSPost2010PropOp38
 70
     1
102
RTVSPost2010Prop39
140
1.0
102
RTVSPost2010PropOp39
 70
     1
102
RTVSPost2010Prop40
 90
        0
102
RTVSPost2010PropOp40
 70
     1
102
RTVSPost2010Prop41ColorIndex
 90
       18
102
RTVSPost2010Prop41ColorRGB
 90
        0
102
RTVSPost2010PropOp41
 70
     1
102
RTVSPost2010Prop42
 90
       50
102
RTVSPost2010PropOp42
 70
     1
102
RTVSPost2010Prop43
 90
        3
102
RTVSPost2010PropOp43
 70
     1
102
RTVSPost2010Prop44ColorIndex
 90
        5
102
RTVSPost2010Prop44ColorRGB
 90
      255
102
RTVSPost2010PropOp44
 70
     1
102
RTVSPost2010Prop45
280
     0
102
RTVSPost2010PropOp45
 70
     1
102
RTVSPost2010Prop46
 90
       50
102
RTVSPost2010PropOp46
 70
     1
102
RTVSPost2010Prop47
 90
       50
102
RTVSPost2010PropOp47
 70
     1
102
RTVSPost2010Prop48
 90
       50
102
RTVSPost2010PropOp48
 70
     1
102
RTVSPost2010Prop49
280
     0
102
RTVSPost2010PropOp49
 70
     1
102
RTVSPost2010Prop50
 90
       50
102
RTVSPost2010PropOp50
 70
     1
102
RTVSPost2010Prop51ColorIndex
 90
      256
102
RTVSPost2010Prop51ColorRGB
 90
-16777216
102
RTVSPost2010PropOp51
 70
     0
102
RTVSPost2010Prop52
140
1.0
102
RTVSPost2010PropOp52
 70
     0
102
RTVSPost2010Prop53
 90
        2
102
RTVSPost2010PropOp53
 70
     1
102
RTVSPost2010Prop54
  1
strokes_ogs.tif
102
RTVSPost2010PropOp54
 70
     1
102
RTVSPost2010Prop55
280
     0
102
RTVSPost2010PropOp55
 70
     1
102
RTVSPost2010Prop56
140
1.0
102
RTVSPost2010PropOp56
 70
     1
102
RTVSPost2010Prop57
140
1.0
102
RTVSPost2010PropOp57
 70
     1
102
RTVSPropertyOp0
 70
     1
102
RTVSPropertyOp1
 70
     1
102
RTVSPropertyOp2
 70
     1
102
RTVSPropertyOp3
 70
     1
102
RTVSPropertyOp4
 70
     1
102
RTVSPropertyOp5
 70
     1
102
RTVSPropertyOp6
 70
     1
102
RTVSPropertyOp7
 70
     1
102
RTVSPropertyOp8
 70
     1
102
RTVSPropertyOp9
 70
     1
102
RTVSPropertyOp10
 70
     1
102
RTVSPropertyOp11
 70
     1
102
RTVSPropertyOp12
 70
     1
102
RTVSPropertyOp13
 70
     1
102
RTVSPropertyOp14
 70
     1
102
RTVSPropertyOp15
 70
     1
102
RTVSPropertyOp16
 70
     1
102
RTVSPropertyOp17
 70
     1
102
RTVSPropertyOp18
 70
     1
102
RTVSPropertyOp19
 70
     1
102
RTVSPropertyOp20
 70
     1
102
RTVSPropertyOp21
 70
     1
102
RTVSPropertyOp22
 70
     1
102
RTVSPropertyOp23
 70
     1
102
RTVSPropertyOp24
 70
     1
102
RTVSPropertyOp25
 70
     1
102
RTVSPropertyOp26
 70
     1
102
RTVSPropertyOp27
 70
     1
102
RTVSPropertyOp28
 70
     1
102
RTVSPropertyOp29
 70
     1
102
RTVSPropertyOp30
 70
     1
102
RTVSPropertyOp31
 70
     1
102
RTVSPropertyOp32
 70
     1
102
RTVSPropertyOp33
 70
     1
102
RTVSPropertyOp34
 70
     1
102
RTVSPropertyOp35
 70
     1
102
RTVSPropertyOp36
 70
     1
102
RTVSPropertyOp37
 70
     1
102
RTVSPropertyOp38
 70
     1
102
RTVSPropertyOp39
 70
     1
102
RTVSPropertyOp40
 70
     1
102
RTVSPropertyOp41
 70
     1
102
RTVSPropertyOp42
 70
     1
102
RTVSPropertyOp43
 70
     1
102
RTVSPropertyOp44
 70
     1
102
RTVSPropertyOp45
 70
     1
102
RTVSPropertyOp46
 70
     1
102
RTVSPropertyOp47
 70
     1
102
RTVSPropertyOp48
 70
     1
102
RTVSPropertyOp49
 70
     1
102
RTVSPropertyOp50
 70
     1
102
RTVSPropertyOp51
 70
     0
102
RTVSPropertyOp52
 70
     0
102
RTVSPropertyOp53
 70
     1
102
RTVSPropertyOp54
 70
     1
102
RTVSPropertyOp55
 70
     1
102
RTVSPropertyOp56
 70
     1
102
RTVSPropertyOp57
 70
     1
102
RTVSPropertyOp58
 70
     1
102
RTVSPropertyOp59
 70
     1
102
RTVSPropertyOp60
 70
     1
102
RTVSPropertyOp61
 70
     1
102
RTVSPropertyOp62
 70
     1
  0
XRECORD
  5
443
102
{ACAD_REACTORS
330
442
102
}
330
442
100
AcDbXrecord
280
     1
102
RTVSPost2010Prop28
280
     0
102
RTVSPost2010PropOp28
 70
     1
102
RTVSPost2010Prop29
280
     1
102
RTVSPost2010PropOp29
 70
     1
102
RTVSPost2010Prop30
280
     1
102
RTVSPost2010PropOp30
 70
     1
102
RTVSPost2010Prop31
280
     0
102
RTVSPost2010PropOp31
 70
     1
102
RTVSPost2010Prop32
280
     0
102
RTVSPost2010PropOp32
 70
     1
102
RTVSPost2010Prop33
280
     0
102
RTVSPost2010PropOp33
 70
     1
102
RTVSPost2010Prop34
280
     0
102
RTVSPost2010PropOp34
 70
     1
102
RTVSPost2010Prop35
280
     0
102
RTVSPost2010PropOp35
 70
     1
102
RTVSPost2010Prop36
280
     0
102
RTVSPost2010PropOp36
 70
     1
102
RTVSPost2010Prop37
 90
       50
102
RTVSPost2010PropOp37
 70
     1
102
RTVSPost2010Prop38
140
0.0
102
RTVSPost2010PropOp38
 70
     1
102
RTVSPost2010Prop39
140
1.0
102
RTVSPost2010PropOp39
 70
     1
102
RTVSPost2010Prop40
 90
        0
102
RTVSPost2010PropOp40
 70
     1
102
RTVSPost2010Prop41ColorIndex
 90
       18
102
RTVSPost2010Prop41ColorRGB
 90
        0
102
RTVSPost2010PropOp41
 70
     1
102
RTVSPost2010Prop42
 90
       50
102
RTVSPost2010PropOp42
 70
     1
102
RTVSPost2010Prop43
 90
        3
102
RTVSPost2010PropOp43
 70
     1
102
RTVSPost2010Prop44ColorIndex
 90
        5
102
RTVSPost2010Prop44ColorRGB
 90
      255
102
RTVSPost2010PropOp44
 70
     1
102
RTVSPost2010Prop45
280
     0
102
RTVSPost2010PropOp45
 70
     1
102
RTVSPost2010Prop46
 90
       50
102
RTVSPost2010PropOp46
 70
     1
102
RTVSPost2010Prop47
 90
       50
102
RTVSPost2010PropOp47
 70
     1
102
RTVSPost2010Prop48
 90
       50
102
RTVSPost2010PropOp48
 70
     1
102
RTVSPost2010Prop49
280
     0
102
RTVSPost2010PropOp49
 70
     1
102
RTVSPost2010Prop50
 90
       50
102
RTVSPost2010PropOp50
 70
     1
102
RTVSPost2010Prop51ColorIndex
 90
      256
102
RTVSPost2010Prop51ColorRGB
 90
-16777216
102
RTVSPost2010PropOp51
 70
     0
102
RTVSPost2010Prop52
140
1.0
102
RTVSPost2010PropOp52
 70
     0
102
RTVSPost2010Prop53
 90
        2
102
RTVSPost2010PropOp53
 70
     1
102
RTVSPost2010Prop54
  1
strokes_ogs.tif
102
RTVSPost2010PropOp54
 70
     1
102
RTVSPost2010Prop55
280
     0
102
RTVSPost2010PropOp55
 70
     1
102
RTVSPost2010Prop56
140
1.0
102
RTVSPost2010PropOp56
 70
     1
102
RTVSPost2010Prop57
140
1.0
102
RTVSPost2010PropOp57
 70
     1
102
RTVSPropertyOp0
 70
     1
102
RTVSPropertyOp1
 70
     1
102
RTVSPropertyOp2
 70
     1
102
RTVSPropertyOp3
 70
     1
102
RTVSPropertyOp4
 70
     1
102
RTVSPropertyOp5
 70
     1
102
RTVSPropertyOp6
 70
     1
102
RTVSPropertyOp7
 70
     1
102
RTVSPropertyOp8
 70
     1
102
RTVSPropertyOp9
 70
     1
102
RTVSPropertyOp10
 70
     1
102
RTVSPropertyOp11
 70
     1
102
RTVSPropertyOp12
 70
     1
102
RTVSPropertyOp13
 70
     1
102
RTVSPropertyOp14
 70
     1
102
RTVSPropertyOp15
 70
     1
102
RTVSPropertyOp16
 70
     1
102
RTVSPropertyOp17
 70
     1
102
RTVSPropertyOp18
 70
     1
102
RTVSPropertyOp19
 70
     1
102
RTVSPropertyOp20
 70
     1
102
RTVSPropertyOp21
 70
     1
102
RTVSPropertyOp22
 70
     1
102
RTVSPropertyOp23
 70
     1
102
RTVSPropertyOp24
 70
     1
102
RTVSPropertyOp25
 70
     1
102
RTVSPropertyOp26
 70
     1
102
RTVSPropertyOp27
 70
     1
102
RTVSPropertyOp28
 70
     1
102
RTVSPropertyOp29
 70
     1
102
RTVSPropertyOp30
 70
     1
102
RTVSPropertyOp31
 70
     1
102
RTVSPropertyOp32
 70
     1
102
RTVSPropertyOp33
 70
     1
102
RTVSPropertyOp34
 70
     1
102
RTVSPropertyOp35
 70
     1
102
RTVSPropertyOp36
 70
     1
102
RTVSPropertyOp37
 70
     1
102
RTVSPropertyOp38
 70
     1
102
RTVSPropertyOp39
 70
     1
102
RTVSPropertyOp40
 70
     1
102
RTVSPropertyOp41
 70
     1
102
RTVSPropertyOp42
 70
     1
102
RTVSPropertyOp43
 70
     1
102
RTVSPropertyOp44
 70
     1
102
RTVSPropertyOp45
 70
     1
102
RTVSPropertyOp46
 70
     1
102
RTVSPropertyOp47
 70
     1
102
RTVSPropertyOp48
 70
     1
102
RTVSPropertyOp49
 70
     1
102
RTVSPropertyOp50
 70
     1
102
RTVSPropertyOp51
 70
     0
102
RTVSPropertyOp52
 70
     0
102
RTVSPropertyOp53
 70
     1
102
RTVSPropertyOp54
 70
     1
102
RTVSPropertyOp55
 70
     1
102
RTVSPropertyOp56
 70
     1
102
RTVSPropertyOp57
 70
     1
102
RTVSPropertyOp58
 70
     1
102
RTVSPropertyOp59
 70
     1
102
RTVSPropertyOp60
 70
     1
102
RTVSPropertyOp61
 70
     1
102
RTVSPropertyOp62
 70
     1
  0
XRECORD
  5
44B
102
{ACAD_REACTORS
330
44A
102
}
330
44A
100
AcDbXrecord
280
     1
102
RTVSPost2010Prop28
280
     0
102
RTVSPost2010PropOp28
 70
     1
102
RTVSPost2010Prop29
280
     1
102
RTVSPost2010PropOp29
 70
     1
102
RTVSPost2010Prop30
280
     1
102
RTVSPost2010PropOp30
 70
     1
102
RTVSPost2010Prop31
280
     0
102
RTVSPost2010PropOp31
 70
     1
102
RTVSPost2010Prop32
280
     0
102
RTVSPost2010PropOp32
 70
     1
102
RTVSPost2010Prop33
280
     0
102
RTVSPost2010PropOp33
 70
     1
102
RTVSPost2010Prop34
280
     0
102
RTVSPost2010PropOp34
 70
     1
102
RTVSPost2010Prop35
280
     0
102
RTVSPost2010PropOp35
 70
     1
102
RTVSPost2010Prop36
280
     0
102
RTVSPost2010PropOp36
 70
     1
102
RTVSPost2010Prop37
 90
       50
102
RTVSPost2010PropOp37
 70
     1
102
RTVSPost2010Prop38
140
0.0
102
RTVSPost2010PropOp38
 70
     1
102
RTVSPost2010Prop39
140
1.0
102
RTVSPost2010PropOp39
 70
     1
102
RTVSPost2010Prop40
 90
        0
102
RTVSPost2010PropOp40
 70
     1
102
RTVSPost2010Prop41ColorIndex
 90
       18
102
RTVSPost2010Prop41ColorRGB
 90
        0
102
RTVSPost2010PropOp41
 70
     1
102
RTVSPost2010Prop42
 90
       50
102
RTVSPost2010PropOp42
 70
     1
102
RTVSPost2010Prop43
 90
        3
102
RTVSPost2010PropOp43
 70
     1
102
RTVSPost2010Prop44ColorIndex
 90
        5
102
RTVSPost2010Prop44ColorRGB
 90
      255
102
RTVSPost2010PropOp44
 70
     1
102
RTVSPost2010Prop45
280
     0
102
RTVSPost2010PropOp45
 70
     1
102
RTVSPost2010Prop46
 90
       50
102
RTVSPost2010PropOp46
 70
     1
102
RTVSPost2010Prop47
 90
       50
102
RTVSPost2010PropOp47
 70
     1
102
RTVSPost2010Prop48
 90
       50
102
RTVSPost2010PropOp48
 70
     1
102
RTVSPost2010Prop49
280
     0
102
RTVSPost2010PropOp49
 70
     1
102
RTVSPost2010Prop50
 90
       50
102
RTVSPost2010PropOp50
 70
     1
102
RTVSPost2010Prop51ColorIndex
 90
      256
102
RTVSPost2010Prop51ColorRGB
 90
-16777216
102
RTVSPost2010PropOp51
 70
     0
102
RTVSPost2010Prop52
140
1.0
102
RTVSPost2010PropOp52
 70
     0
102
RTVSPost2010Prop53
 90
        2
102
RTVSPost2010PropOp53
 70
     1
102
RTVSPost2010Prop54
  1
strokes_ogs.tif
102
RTVSPost2010PropOp54
 70
     1
102
RTVSPost2010Prop55
280
     0
102
RTVSPost2010PropOp55
 70
     1
102
RTVSPost2010Prop56
140
1.0
102
RTVSPost2010PropOp56
 70
     1
102
RTVSPost2010Prop57
140
1.0
102
RTVSPost2010PropOp57
 70
     1
102
RTVSPropertyOp0
 70
     1
102
RTVSPropertyOp1
 70
     1
102
RTVSPropertyOp2
 70
     1
102
RTVSPropertyOp3
 70
     1
102
RTVSPropertyOp4
 70
     1
102
RTVSPropertyOp5
 70
     1
102
RTVSPropertyOp6
 70
     1
102
RTVSPropertyOp7
 70
     1
102
RTVSPropertyOp8
 70
     1
102
RTVSPropertyOp9
 70
     1
102
RTVSPropertyOp10
 70
     1
102
RTVSPropertyOp11
 70
     1
102
RTVSPropertyOp12
 70
     1
102
RTVSPropertyOp13
 70
     1
102
RTVSPropertyOp14
 70
     1
102
RTVSPropertyOp15
 70
     1
102
RTVSPropertyOp16
 70
     1
102
RTVSPropertyOp17
 70
     1
102
RTVSPropertyOp18
 70
     1
102
RTVSPropertyOp19
 70
     1
102
RTVSPropertyOp20
 70
     1
102
RTVSPropertyOp21
 70
     1
102
RTVSPropertyOp22
 70
     1
102
RTVSPropertyOp23
 70
     1
102
RTVSPropertyOp24
 70
     1
102
RTVSPropertyOp25
 70
     1
102
RTVSPropertyOp26
 70
     1
102
RTVSPropertyOp27
 70
     1
102
RTVSPropertyOp28
 70
     1
102
RTVSPropertyOp29
 70
     1
102
RTVSPropertyOp30
 70
     1
102
RTVSPropertyOp31
 70
     1
102
RTVSPropertyOp32
 70
     1
102
RTVSPropertyOp33
 70
     1
102
RTVSPropertyOp34
 70
     1
102
RTVSPropertyOp35
 70
     1
102
RTVSPropertyOp36
 70
     1
102
RTVSPropertyOp37
 70
     1
102
RTVSPropertyOp38
 70
     1
102
RTVSPropertyOp39
 70
     1
102
RTVSPropertyOp40
 70
     1
102
RTVSPropertyOp41
 70
     1
102
RTVSPropertyOp42
 70
     1
102
RTVSPropertyOp43
 70
     1
102
RTVSPropertyOp44
 70
     1
102
RTVSPropertyOp45
 70
     1
102
RTVSPropertyOp46
 70
     1
102
RTVSPropertyOp47
 70
     1
102
RTVSPropertyOp48
 70
     1
102
RTVSPropertyOp49
 70
     1
102
RTVSPropertyOp50
 70
     1
102
RTVSPropertyOp51
 70
     0
102
RTVSPropertyOp52
 70
     0
102
RTVSPropertyOp53
 70
     1
102
RTVSPropertyOp54
 70
     1
102
RTVSPropertyOp55
 70
     1
102
RTVSPropertyOp56
 70
     1
102
RTVSPropertyOp57
 70
     1
102
RTVSPropertyOp58
 70
     1
102
RTVSPropertyOp59
 70
     1
102
RTVSPropertyOp60
 70
     1
102
RTVSPropertyOp61
 70
     1
102
RTVSPropertyOp62
 70
     1
  0
XRECORD
  5
467
102
{ACAD_REACTORS
330
466
102
}
330
466
100
AcDbXrecord
280
     1
102
RTVSPost2010Prop28
280
     0
102
RTVSPost2010PropOp28
 70
     1
102
RTVSPost2010Prop29
280
     1
102
RTVSPost2010PropOp29
 70
     1
102
RTVSPost2010Prop30
280
     1
102
RTVSPost2010PropOp30
 70
     1
102
RTVSPost2010Prop31
280
     0
102
RTVSPost2010PropOp31
 70
     1
102
RTVSPost2010Prop32
280
     0
102
RTVSPost2010PropOp32
 70
     1
102
RTVSPost2010Prop33
280
     0
102
RTVSPost2010PropOp33
 70
     1
102
RTVSPost2010Prop34
280
     0
102
RTVSPost2010PropOp34
 70
     1
102
RTVSPost2010Prop35
280
     0
102
RTVSPost2010PropOp35
 70
     1
102
RTVSPost2010Prop36
280
     0
102
RTVSPost2010PropOp36
 70
     1
102
RTVSPost2010Prop37
 90
       50
102
RTVSPost2010PropOp37
 70
     0
102
RTVSPost2010Prop38
140
0.0
102
RTVSPost2010PropOp38
 70
     0
102
RTVSPost2010Prop39
140
1.0
102
RTVSPost2010PropOp39
 70
     0
102
RTVSPost2010Prop40
 90
        0
102
RTVSPost2010PropOp40
 70
     0
102
RTVSPost2010Prop41ColorIndex
 90
       18
102
RTVSPost2010Prop41ColorRGB
 90
        0
102
RTVSPost2010PropOp41
 70
     0
102
RTVSPost2010Prop42
 90
       50
102
RTVSPost2010PropOp42
 70
     0
102
RTVSPost2010Prop43
 90
        3
102
RTVSPost2010PropOp43
 70
     0
102
RTVSPost2010Prop44ColorIndex
 90
        5
102
RTVSPost2010Prop44ColorRGB
 90
      255
102
RTVSPost2010PropOp44
 70
     0
102
RTVSPost2010Prop45
280
     0
102
RTVSPost2010PropOp45
 70
     1
102
RTVSPost2010Prop46
 90
       50
102
RTVSPost2010PropOp46
 70
     0
102
RTVSPost2010Prop47
 90
       50
102
RTVSPost2010PropOp47
 70
     0
102
RTVSPost2010Prop48
 90
       50
102
RTVSPost2010PropOp48
 70
     0
102
RTVSPost2010Prop49
280
     0
102
RTVSPost2010PropOp49
 70
     1
102
RTVSPost2010Prop50
 90
       50
102
RTVSPost2010PropOp50
 70
     0
102
RTVSPost2010Prop51ColorIndex
 90
      256
102
RTVSPost2010Prop51ColorRGB
 90
-16777216
102
RTVSPost2010PropOp51
 70
     0
102
RTVSPost2010Prop52
140
1.0
102
RTVSPost2010PropOp52
 70
     0
102
RTVSPost2010Prop53
 90
        2
102
RTVSPost2010PropOp53
 70
     0
102
RTVSPost2010Prop54
  1
strokes_ogs.tif
102
RTVSPost2010PropOp54
 70
     0
102
RTVSPost2010Prop55
280
     0
102
RTVSPost2010PropOp55
 70
     1
102
RTVSPost2010Prop56
140
1.0
102
RTVSPost2010PropOp56
 70
     0
102
RTVSPost2010Prop57
140
1.0
102
RTVSPost2010PropOp57
 70
     0
102
RTVSPropertyOp0
 70
     0
102
RTVSPropertyOp1
 70
     0
102
RTVSPropertyOp2
 70
     0
102
RTVSPropertyOp3
 70
     0
102
RTVSPropertyOp4
 70
     0
102
RTVSPropertyOp5
 70
     0
102
RTVSPropertyOp6
 70
     0
102
RTVSPropertyOp7
 70
     0
102
RTVSPropertyOp8
 70
     0
102
RTVSPropertyOp9
 70
     0
102
RTVSPropertyOp10
 70
     0
102
RTVSPropertyOp11
 70
     0
102
RTVSPropertyOp12
 70
     0
102
RTVSPropertyOp13
 70
     0
102
RTVSPropertyOp14
 70
     2
102
RTVSPropertyOp15
 70
     0
102
RTVSPropertyOp16
 70
     0
102
RTVSPropertyOp17
 70
     0
102
RTVSPropertyOp18
 70
     0
102
RTVSPropertyOp19
 70
     0
102
RTVSPropertyOp20
 70
     0
102
RTVSPropertyOp21
 70
     0
102
RTVSPropertyOp22
 70
     0
102
RTVSPropertyOp23
 70
     0
102
RTVSPropertyOp24
 70
     0
102
RTVSPropertyOp25
 70
     0
102
RTVSPropertyOp26
 70
     0
102
RTVSPropertyOp27
 70
     0
102
RTVSPropertyOp28
 70
     1
102
RTVSPropertyOp29
 70
     1
102
RTVSPropertyOp30
 70
     1
102
RTVSPropertyOp31
 70
     1
102
RTVSPropertyOp32
 70
     1
102
RTVSPropertyOp33
 70
     1
102
RTVSPropertyOp34
 70
     1
102
RTVSPropertyOp35
 70
     1
102
RTVSPropertyOp36
 70
     1
102
RTVSPropertyOp37
 70
     0
102
RTVSPropertyOp38
 70
     0
102
RTVSPropertyOp39
 70
     0
102
RTVSPropertyOp40
 70
     0
102
RTVSPropertyOp41
 70
     0
102
RTVSPropertyOp42
 70
     0
102
RTVSPropertyOp43
 70
     0
102
RTVSPropertyOp44
 70
     0
102
RTVSPropertyOp45
 70
     1
102
RTVSPropertyOp46
 70
     0
102
RTVSPropertyOp47
 70
     0
102
RTVSPropertyOp48
 70
     0
102
RTVSPropertyOp49
 70
     1
102
RTVSPropertyOp50
 70
     0
102
RTVSPropertyOp51
 70
     0
102
RTVSPropertyOp52
 70
     0
102
RTVSPropertyOp53
 70
     0
102
RTVSPropertyOp54
 70
     0
102
RTVSPropertyOp55
 70
     1
102
RTVSPropertyOp56
 70
     0
102
RTVSPropertyOp57
 70
     0
102
RTVSPropertyOp58
 70
     0
102
RTVSPropertyOp59
 70
     0
102
RTVSPropertyOp60
 70
     0
102
RTVSPropertyOp61
 70
     0
102
RTVSPropertyOp62
 70
     0
  0
XRECORD
  5
457
102
{ACAD_REACTORS
330
456
102
}
330
456
100
AcDbXrecord
280
     1
102
RTVSPost2010Prop28
280
     0
102
RTVSPost2010PropOp28
 70
     1
102
RTVSPost2010Prop29
280
     1
102
RTVSPost2010PropOp29
 70
     1
102
RTVSPost2010Prop30
280
     1
102
RTVSPost2010PropOp30
 70
     1
102
RTVSPost2010Prop31
280
     0
102
RTVSPost2010PropOp31
 70
     1
102
RTVSPost2010Prop32
280
     0
102
RTVSPost2010PropOp32
 70
     1
102
RTVSPost2010Prop33
280
     0
102
RTVSPost2010PropOp33
 70
     1
102
RTVSPost2010Prop34
280
     0
102
RTVSPost2010PropOp34
 70
     1
102
RTVSPost2010Prop35
280
     0
102
RTVSPost2010PropOp35
 70
     1
102
RTVSPost2010Prop36
280
     0
102
RTVSPost2010PropOp36
 70
     1
102
RTVSPost2010Prop37
 90
       50
102
RTVSPost2010PropOp37
 70
     1
102
RTVSPost2010Prop38
140
0.0
102
RTVSPost2010PropOp38
 70
     1
102
RTVSPost2010Prop39
140
1.0
102
RTVSPost2010PropOp39
 70
     1
102
RTVSPost2010Prop40
 90
        0
102
RTVSPost2010PropOp40
 70
     1
102
RTVSPost2010Prop41ColorIndex
 90
       18
102
RTVSPost2010Prop41ColorRGB
 90
        0
102
RTVSPost2010PropOp41
 70
     1
102
RTVSPost2010Prop42
 90
       50
102
RTVSPost2010PropOp42
 70
     1
102
RTVSPost2010Prop43
 90
        3
102
RTVSPost2010PropOp43
 70
     1
102
RTVSPost2010Prop44ColorIndex
 90
        5
102
RTVSPost2010Prop44ColorRGB
 90
      255
102
RTVSPost2010PropOp44
 70
     1
102
RTVSPost2010Prop45
280
     0
102
RTVSPost2010PropOp45
 70
     1
102
RTVSPost2010Prop46
 90
       50
102
RTVSPost2010PropOp46
 70
     1
102
RTVSPost2010Prop47
 90
       50
102
RTVSPost2010PropOp47
 70
     1
102
RTVSPost2010Prop48
 90
       50
102
RTVSPost2010PropOp48
 70
     1
102
RTVSPost2010Prop49
280
     0
102
RTVSPost2010PropOp49
 70
     1
102
RTVSPost2010Prop50
 90
       50
102
RTVSPost2010PropOp50
 70
     1
102
RTVSPost2010Prop51ColorIndex
 90
      256
102
RTVSPost2010Prop51ColorRGB
 90
-16777216
102
RTVSPost2010PropOp51
 70
     0
102
RTVSPost2010Prop52
140
1.0
102
RTVSPost2010PropOp52
 70
     0
102
RTVSPost2010Prop53
 90
        2
102
RTVSPost2010PropOp53
 70
     1
102
RTVSPost2010Prop54
  1
strokes_ogs.tif
102
RTVSPost2010PropOp54
 70
     1
102
RTVSPost2010Prop55
280
     0
102
RTVSPost2010PropOp55
 70
     1
102
RTVSPost2010Prop56
140
1.0
102
RTVSPost2010PropOp56
 70
     1
102
RTVSPost2010Prop57
140
1.0
102
RTVSPost2010PropOp57
 70
     1
102
RTVSPropertyOp0
 70
     1
102
RTVSPropertyOp1
 70
     1
102
RTVSPropertyOp2
 70
     1
102
RTVSPropertyOp3
 70
     1
102
RTVSPropertyOp4
 70
     1
102
RTVSPropertyOp5
 70
     1
102
RTVSPropertyOp6
 70
     1
102
RTVSPropertyOp7
 70
     1
102
RTVSPropertyOp8
 70
     1
102
RTVSPropertyOp9
 70
     1
102
RTVSPropertyOp10
 70
     1
102
RTVSPropertyOp11
 70
     1
102
RTVSPropertyOp12
 70
     1
102
RTVSPropertyOp13
 70
     1
102
RTVSPropertyOp14
 70
     1
102
RTVSPropertyOp15
 70
     1
102
RTVSPropertyOp16
 70
     1
102
RTVSPropertyOp17
 70
     1
102
RTVSPropertyOp18
 70
     1
102
RTVSPropertyOp19
 70
     1
102
RTVSPropertyOp20
 70
     1
102
RTVSPropertyOp21
 70
     1
102
RTVSPropertyOp22
 70
     1
102
RTVSPropertyOp23
 70
     1
102
RTVSPropertyOp24
 70
     1
102
RTVSPropertyOp25
 70
     1
102
RTVSPropertyOp26
 70
     1
102
RTVSPropertyOp27
 70
     1
102
RTVSPropertyOp28
 70
     1
102
RTVSPropertyOp29
 70
     1
102
RTVSPropertyOp30
 70
     1
102
RTVSPropertyOp31
 70
     1
102
RTVSPropertyOp32
 70
     1
102
RTVSPropertyOp33
 70
     1
102
RTVSPropertyOp34
 70
     1
102
RTVSPropertyOp35
 70
     1
102
RTVSPropertyOp36
 70
     1
102
RTVSPropertyOp37
 70
     1
102
RTVSPropertyOp38
 70
     1
102
RTVSPropertyOp39
 70
     1
102
RTVSPropertyOp40
 70
     1
102
RTVSPropertyOp41
 70
     1
102
RTVSPropertyOp42
 70
     1
102
RTVSPropertyOp43
 70
     1
102
RTVSPropertyOp44
 70
     1
102
RTVSPropertyOp45
 70
     1
102
RTVSPropertyOp46
 70
     1
102
RTVSPropertyOp47
 70
     1
102
RTVSPropertyOp48
 70
     1
102
RTVSPropertyOp49
 70
     1
102
RTVSPropertyOp50
 70
     1
102
RTVSPropertyOp51
 70
     0
102
RTVSPropertyOp52
 70
     0
102
RTVSPropertyOp53
 70
     1
102
RTVSPropertyOp54
 70
     1
102
RTVSPropertyOp55
 70
     1
102
RTVSPropertyOp56
 70
     1
102
RTVSPropertyOp57
 70
     1
102
RTVSPropertyOp58
 70
     1
102
RTVSPropertyOp59
 70
     1
102
RTVSPropertyOp60
 70
     1
102
RTVSPropertyOp61
 70
     1
102
RTVSPropertyOp62
 70
     1
  0
XRECORD
  5
469
102
{ACAD_REACTORS
330
468
102
}
330
468
100
AcDbXrecord
280
     1
102
RTVSPost2010Prop28
280
     0
102
RTVSPost2010PropOp28
 70
     1
102
RTVSPost2010Prop29
280
     1
102
RTVSPost2010PropOp29
 70
     1
102
RTVSPost2010Prop30
280
     1
102
RTVSPost2010PropOp30
 70
     1
102
RTVSPost2010Prop31
280
     0
102
RTVSPost2010PropOp31
 70
     1
102
RTVSPost2010Prop32
280
     0
102
RTVSPost2010PropOp32
 70
     1
102
RTVSPost2010Prop33
280
     0
102
RTVSPost2010PropOp33
 70
     1
102
RTVSPost2010Prop34
280
     0
102
RTVSPost2010PropOp34
 70
     1
102
RTVSPost2010Prop35
280
     0
102
RTVSPost2010PropOp35
 70
     1
102
RTVSPost2010Prop36
280
     0
102
RTVSPost2010PropOp36
 70
     1
102
RTVSPost2010Prop37
 90
       50
102
RTVSPost2010PropOp37
 70
     0
102
RTVSPost2010Prop38
140
0.0
102
RTVSPost2010PropOp38
 70
     0
102
RTVSPost2010Prop39
140
1.0
102
RTVSPost2010PropOp39
 70
     0
102
RTVSPost2010Prop40
 90
        0
102
RTVSPost2010PropOp40
 70
     0
102
RTVSPost2010Prop41ColorIndex
 90
       18
102
RTVSPost2010Prop41ColorRGB
 90
        0
102
RTVSPost2010PropOp41
 70
     0
102
RTVSPost2010Prop42
 90
       50
102
RTVSPost2010PropOp42
 70
     0
102
RTVSPost2010Prop43
 90
        3
102
RTVSPost2010PropOp43
 70
     0
102
RTVSPost2010Prop44ColorIndex
 90
        5
102
RTVSPost2010Prop44ColorRGB
 90
      255
102
RTVSPost2010PropOp44
 70
     0
102
RTVSPost2010Prop45
280
     0
102
RTVSPost2010PropOp45
 70
     1
102
RTVSPost2010Prop46
 90
       50
102
RTVSPost2010PropOp46
 70
     0
102
RTVSPost2010Prop47
 90
       50
102
RTVSPost2010PropOp47
 70
     0
102
RTVSPost2010Prop48
 90
       50
102
RTVSPost2010PropOp48
 70
     0
102
RTVSPost2010Prop49
280
     0
102
RTVSPost2010PropOp49
 70
     1
102
RTVSPost2010Prop50
 90
       50
102
RTVSPost2010PropOp50
 70
     0
102
RTVSPost2010Prop51ColorIndex
 90
      256
102
RTVSPost2010Prop51ColorRGB
 90
-16777216
102
RTVSPost2010PropOp51
 70
     0
102
RTVSPost2010Prop52
140
1.0
102
RTVSPost2010PropOp52
 70
     0
102
RTVSPost2010Prop53
 90
        2
102
RTVSPost2010PropOp53
 70
     0
102
RTVSPost2010Prop54
  1
strokes_ogs.tif
102
RTVSPost2010PropOp54
 70
     0
102
RTVSPost2010Prop55
280
     0
102
RTVSPost2010PropOp55
 70
     1
102
RTVSPost2010Prop56
140
1.0
102
RTVSPost2010PropOp56
 70
     0
102
RTVSPost2010Prop57
140
1.0
102
RTVSPost2010PropOp57
 70
     0
102
RTVSPropertyOp0
 70
     0
102
RTVSPropertyOp1
 70
     0
102
RTVSPropertyOp2
 70
     0
102
RTVSPropertyOp3
 70
     0
102
RTVSPropertyOp4
 70
     0
102
RTVSPropertyOp5
 70
     0
102
RTVSPropertyOp6
 70
     0
102
RTVSPropertyOp7
 70
     0
102
RTVSPropertyOp8
 70
     0
102
RTVSPropertyOp9
 70
     0
102
RTVSPropertyOp10
 70
     0
102
RTVSPropertyOp11
 70
     0
102
RTVSPropertyOp12
 70
     0
102
RTVSPropertyOp13
 70
     0
102
RTVSPropertyOp14
 70
     2
102
RTVSPropertyOp15
 70
     0
102
RTVSPropertyOp16
 70
     0
102
RTVSPropertyOp17
 70
     0
102
RTVSPropertyOp18
 70
     0
102
RTVSPropertyOp19
 70
     0
102
RTVSPropertyOp20
 70
     0
102
RTVSPropertyOp21
 70
     0
102
RTVSPropertyOp22
 70
     0
102
RTVSPropertyOp23
 70
     0
102
RTVSPropertyOp24
 70
     0
102
RTVSPropertyOp25
 70
     0
102
RTVSPropertyOp26
 70
     0
102
RTVSPropertyOp27
 70
     0
102
RTVSPropertyOp28
 70
     1
102
RTVSPropertyOp29
 70
     1
102
RTVSPropertyOp30
 70
     1
102
RTVSPropertyOp31
 70
     1
102
RTVSPropertyOp32
 70
     1
102
RTVSPropertyOp33
 70
     1
102
RTVSPropertyOp34
 70
     1
102
RTVSPropertyOp35
 70
     1
102
RTVSPropertyOp36
 70
     1
102
RTVSPropertyOp37
 70
     0
102
RTVSPropertyOp38
 70
     0
102
RTVSPropertyOp39
 70
     0
102
RTVSPropertyOp40
 70
     0
102
RTVSPropertyOp41
 70
     0
102
RTVSPropertyOp42
 70
     0
102
RTVSPropertyOp43
 70
     0
102
RTVSPropertyOp44
 70
     0
102
RTVSPropertyOp45
 70
     1
102
RTVSPropertyOp46
 70
     0
102
RTVSPropertyOp47
 70
     0
102
RTVSPropertyOp48
 70
     0
102
RTVSPropertyOp49
 70
     1
102
RTVSPropertyOp50
 70
     0
102
RTVSPropertyOp51
 70
     0
102
RTVSPropertyOp52
 70
     0
102
RTVSPropertyOp53
 70
     0
102
RTVSPropertyOp54
 70
     0
102
RTVSPropertyOp55
 70
     1
102
RTVSPropertyOp56
 70
     0
102
RTVSPropertyOp57
 70
     0
102
RTVSPropertyOp58
 70
     0
102
RTVSPropertyOp59
 70
     0
102
RTVSPropertyOp60
 70
     0
102
RTVSPropertyOp61
 70
     0
102
RTVSPropertyOp62
 70
     0
  0
XRECORD
  5
44F
102
{ACAD_REACTORS
330
44E
102
}
330
44E
100
AcDbXrecord
280
     1
102
RTVSPost2010Prop28
280
     0
102
RTVSPost2010PropOp28
 70
     1
102
RTVSPost2010Prop29
280
     1
102
RTVSPost2010PropOp29
 70
     1
102
RTVSPost2010Prop30
280
     1
102
RTVSPost2010PropOp30
 70
     1
102
RTVSPost2010Prop31
280
     0
102
RTVSPost2010PropOp31
 70
     1
102
RTVSPost2010Prop32
280
     0
102
RTVSPost2010PropOp32
 70
     1
102
RTVSPost2010Prop33
280
     0
102
RTVSPost2010PropOp33
 70
     1
102
RTVSPost2010Prop34
280
     0
102
RTVSPost2010PropOp34
 70
     1
102
RTVSPost2010Prop35
280
     0
102
RTVSPost2010PropOp35
 70
     1
102
RTVSPost2010Prop36
280
     0
102
RTVSPost2010PropOp36
 70
     1
102
RTVSPost2010Prop37
 90
       50
102
RTVSPost2010PropOp37
 70
     1
102
RTVSPost2010Prop38
140
0.0
102
RTVSPost2010PropOp38
 70
     1
102
RTVSPost2010Prop39
140
1.0
102
RTVSPost2010PropOp39
 70
     1
102
RTVSPost2010Prop40
 90
        0
102
RTVSPost2010PropOp40
 70
     1
102
RTVSPost2010Prop41ColorIndex
 90
       18
102
RTVSPost2010Prop41ColorRGB
 90
        0
102
RTVSPost2010PropOp41
 70
     1
102
RTVSPost2010Prop42
 90
       50
102
RTVSPost2010PropOp42
 70
     1
102
RTVSPost2010Prop43
 90
        3
102
RTVSPost2010PropOp43
 70
     1
102
RTVSPost2010Prop44ColorIndex
 90
        5
102
RTVSPost2010Prop44ColorRGB
 90
      255
102
RTVSPost2010PropOp44
 70
     1
102
RTVSPost2010Prop45
280
     0
102
RTVSPost2010PropOp45
 70
     1
102
RTVSPost2010Prop46
 90
       50
102
RTVSPost2010PropOp46
 70
     1
102
RTVSPost2010Prop47
 90
       50
102
RTVSPost2010PropOp47
 70
     1
102
RTVSPost2010Prop48
 90
       50
102
RTVSPost2010PropOp48
 70
     1
102
RTVSPost2010Prop49
280
     0
102
RTVSPost2010PropOp49
 70
     1
102
RTVSPost2010Prop50
 90
       50
102
RTVSPost2010PropOp50
 70
     1
102
RTVSPost2010Prop51ColorIndex
 90
      256
102
RTVSPost2010Prop51ColorRGB
 90
-16777216
102
RTVSPost2010PropOp51
 70
     0
102
RTVSPost2010Prop52
140
1.0
102
RTVSPost2010PropOp52
 70
     0
102
RTVSPost2010Prop53
 90
        2
102
RTVSPost2010PropOp53
 70
     1
102
RTVSPost2010Prop54
  1
strokes_ogs.tif
102
RTVSPost2010PropOp54
 70
     1
102
RTVSPost2010Prop55
280
     0
102
RTVSPost2010PropOp55
 70
     1
102
RTVSPost2010Prop56
140
1.0
102
RTVSPost2010PropOp56
 70
     1
102
RTVSPost2010Prop57
140
1.0
102
RTVSPost2010PropOp57
 70
     1
102
RTVSPropertyOp0
 70
     1
102
RTVSPropertyOp1
 70
     1
102
RTVSPropertyOp2
 70
     1
102
RTVSPropertyOp3
 70
     1
102
RTVSPropertyOp4
 70
     1
102
RTVSPropertyOp5
 70
     1
102
RTVSPropertyOp6
 70
     1
102
RTVSPropertyOp7
 70
     1
102
RTVSPropertyOp8
 70
     1
102
RTVSPropertyOp9
 70
     1
102
RTVSPropertyOp10
 70
     1
102
RTVSPropertyOp11
 70
     1
102
RTVSPropertyOp12
 70
     1
102
RTVSPropertyOp13
 70
     1
102
RTVSPropertyOp14
 70
     1
102
RTVSPropertyOp15
 70
     1
102
RTVSPropertyOp16
 70
     1
102
RTVSPropertyOp17
 70
     1
102
RTVSPropertyOp18
 70
     1
102
RTVSPropertyOp19
 70
     1
102
RTVSPropertyOp20
 70
     1
102
RTVSPropertyOp21
 70
     1
102
RTVSPropertyOp22
 70
     1
102
RTVSPropertyOp23
 70
     1
102
RTVSPropertyOp24
 70
     1
102
RTVSPropertyOp25
 70
     1
102
RTVSPropertyOp26
 70
     1
102
RTVSPropertyOp27
 70
     1
102
RTVSPropertyOp28
 70
     1
102
RTVSPropertyOp29
 70
     1
102
RTVSPropertyOp30
 70
     1
102
RTVSPropertyOp31
 70
     1
102
RTVSPropertyOp32
 70
     1
102
RTVSPropertyOp33
 70
     1
102
RTVSPropertyOp34
 70
     1
102
RTVSPropertyOp35
 70
     1
102
RTVSPropertyOp36
 70
     1
102
RTVSPropertyOp37
 70
     1
102
RTVSPropertyOp38
 70
     1
102
RTVSPropertyOp39
 70
     1
102
RTVSPropertyOp40
 70
     1
102
RTVSPropertyOp41
 70
     1
102
RTVSPropertyOp42
 70
     1
102
RTVSPropertyOp43
 70
     1
102
RTVSPropertyOp44
 70
     1
102
RTVSPropertyOp45
 70
     1
102
RTVSPropertyOp46
 70
     1
102
RTVSPropertyOp47
 70
     1
102
RTVSPropertyOp48
 70
     1
102
RTVSPropertyOp49
 70
     1
102
RTVSPropertyOp50
 70
     1
102
RTVSPropertyOp51
 70
     0
102
RTVSPropertyOp52
 70
     0
102
RTVSPropertyOp53
 70
     1
102
RTVSPropertyOp54
 70
     1
102
RTVSPropertyOp55
 70
     1
102
RTVSPropertyOp56
 70
     1
102
RTVSPropertyOp57
 70
     1
102
RTVSPropertyOp58
 70
     1
102
RTVSPropertyOp59
 70
     1
102
RTVSPropertyOp60
 70
     1
102
RTVSPropertyOp61
 70
     1
102
RTVSPropertyOp62
 70
     1
  0
XRECORD
  5
465
102
{ACAD_REACTORS
330
464
102
}
330
464
100
AcDbXrecord
280
     1
102
RTVSPost2010Prop28
280
     0
102
RTVSPost2010PropOp28
 70
     1
102
RTVSPost2010Prop29
280
     1
102
RTVSPost2010PropOp29
 70
     1
102
RTVSPost2010Prop30
280
     1
102
RTVSPost2010PropOp30
 70
     1
102
RTVSPost2010Prop31
280
     0
102
RTVSPost2010PropOp31
 70
     1
102
RTVSPost2010Prop32
280
     0
102
RTVSPost2010PropOp32
 70
     1
102
RTVSPost2010Prop33
280
     0
102
RTVSPost2010PropOp33
 70
     1
102
RTVSPost2010Prop34
280
     0
102
RTVSPost2010PropOp34
 70
     1
102
RTVSPost2010Prop35
280
     0
102
RTVSPost2010PropOp35
 70
     1
102
RTVSPost2010Prop36
280
     0
102
RTVSPost2010PropOp36
 70
     1
102
RTVSPost2010Prop37
 90
       50
102
RTVSPost2010PropOp37
 70
     1
102
RTVSPost2010Prop38
140
0.0
102
RTVSPost2010PropOp38
 70
     1
102
RTVSPost2010Prop39
140
1.0
102
RTVSPost2010PropOp39
 70
     1
102
RTVSPost2010Prop40
 90
        0
102
RTVSPost2010PropOp40
 70
     1
102
RTVSPost2010Prop41ColorIndex
 90
       18
102
RTVSPost2010Prop41ColorRGB
 90
        0
102
RTVSPost2010PropOp41
 70
     1
102
RTVSPost2010Prop42
 90
       50
102
RTVSPost2010PropOp42
 70
     1
102
RTVSPost2010Prop43
 90
        3
102
RTVSPost2010PropOp43
 70
     1
102
RTVSPost2010Prop44ColorIndex
 90
        5
102
RTVSPost2010Prop44ColorRGB
 90
      255
102
RTVSPost2010PropOp44
 70
     1
102
RTVSPost2010Prop45
280
     0
102
RTVSPost2010PropOp45
 70
     1
102
RTVSPost2010Prop46
 90
       50
102
RTVSPost2010PropOp46
 70
     1
102
RTVSPost2010Prop47
 90
       50
102
RTVSPost2010PropOp47
 70
     1
102
RTVSPost2010Prop48
 90
       50
102
RTVSPost2010PropOp48
 70
     1
102
RTVSPost2010Prop49
280
     0
102
RTVSPost2010PropOp49
 70
     1
102
RTVSPost2010Prop50
 90
       50
102
RTVSPost2010PropOp50
 70
     1
102
RTVSPost2010Prop51ColorIndex
 90
      256
102
RTVSPost2010Prop51ColorRGB
 90
-16777216
102
RTVSPost2010PropOp51
 70
     0
102
RTVSPost2010Prop52
140
1.0
102
RTVSPost2010PropOp52
 70
     0
102
RTVSPost2010Prop53
 90
        2
102
RTVSPost2010PropOp53
 70
     1
102
RTVSPost2010Prop54
  1
strokes_ogs.tif
102
RTVSPost2010PropOp54
 70
     1
102
RTVSPost2010Prop55
280
     0
102
RTVSPost2010PropOp55
 70
     1
102
RTVSPost2010Prop56
140
1.0
102
RTVSPost2010PropOp56
 70
     1
102
RTVSPost2010Prop57
140
1.0
102
RTVSPost2010PropOp57
 70
     1
102
RTVSPropertyOp0
 70
     1
102
RTVSPropertyOp1
 70
     1
102
RTVSPropertyOp2
 70
     1
102
RTVSPropertyOp3
 70
     1
102
RTVSPropertyOp4
 70
     1
102
RTVSPropertyOp5
 70
     1
102
RTVSPropertyOp6
 70
     1
102
RTVSPropertyOp7
 70
     1
102
RTVSPropertyOp8
 70
     1
102
RTVSPropertyOp9
 70
     1
102
RTVSPropertyOp10
 70
     1
102
RTVSPropertyOp11
 70
     1
102
RTVSPropertyOp12
 70
     1
102
RTVSPropertyOp13
 70
     1
102
RTVSPropertyOp14
 70
     1
102
RTVSPropertyOp15
 70
     1
102
RTVSPropertyOp16
 70
     1
102
RTVSPropertyOp17
 70
     1
102
RTVSPropertyOp18
 70
     1
102
RTVSPropertyOp19
 70
     1
102
RTVSPropertyOp20
 70
     1
102
RTVSPropertyOp21
 70
     1
102
RTVSPropertyOp22
 70
     1
102
RTVSPropertyOp23
 70
     1
102
RTVSPropertyOp24
 70
     1
102
RTVSPropertyOp25
 70
     1
102
RTVSPropertyOp26
 70
     1
102
RTVSPropertyOp27
 70
     1
102
RTVSPropertyOp28
 70
     1
102
RTVSPropertyOp29
 70
     1
102
RTVSPropertyOp30
 70
     1
102
RTVSPropertyOp31
 70
     1
102
RTVSPropertyOp32
 70
     1
102
RTVSPropertyOp33
 70
     1
102
RTVSPropertyOp34
 70
     1
102
RTVSPropertyOp35
 70
     1
102
RTVSPropertyOp36
 70
     1
102
RTVSPropertyOp37
 70
     1
102
RTVSPropertyOp38
 70
     1
102
RTVSPropertyOp39
 70
     1
102
RTVSPropertyOp40
 70
     1
102
RTVSPropertyOp41
 70
     1
102
RTVSPropertyOp42
 70
     1
102
RTVSPropertyOp43
 70
     1
102
RTVSPropertyOp44
 70
     1
102
RTVSPropertyOp45
 70
     1
102
RTVSPropertyOp46
 70
     1
102
RTVSPropertyOp47
 70
     1
102
RTVSPropertyOp48
 70
     1
102
RTVSPropertyOp49
 70
     1
102
RTVSPropertyOp50
 70
     1
102
RTVSPropertyOp51
 70
     0
102
RTVSPropertyOp52
 70
     0
102
RTVSPropertyOp53
 70
     1
102
RTVSPropertyOp54
 70
     1
102
RTVSPropertyOp55
 70
     1
102
RTVSPropertyOp56
 70
     1
102
RTVSPropertyOp57
 70
     1
102
RTVSPropertyOp58
 70
     1
102
RTVSPropertyOp59
 70
     1
102
RTVSPropertyOp60
 70
     1
102
RTVSPropertyOp61
 70
     1
102
RTVSPropertyOp62
 70
     1
  0
XRECORD
  5
463
102
{ACAD_REACTORS
330
462
102
}
330
462
100
AcDbXrecord
280
     1
102
RTVSPost2010Prop28
280
     0
102
RTVSPost2010PropOp28
 70
     1
102
RTVSPost2010Prop29
280
     1
102
RTVSPost2010PropOp29
 70
     1
102
RTVSPost2010Prop30
280
     1
102
RTVSPost2010PropOp30
 70
     1
102
RTVSPost2010Prop31
280
     0
102
RTVSPost2010PropOp31
 70
     1
102
RTVSPost2010Prop32
280
     0
102
RTVSPost2010PropOp32
 70
     1
102
RTVSPost2010Prop33
280
     0
102
RTVSPost2010PropOp33
 70
     1
102
RTVSPost2010Prop34
280
     0
102
RTVSPost2010PropOp34
 70
     1
102
RTVSPost2010Prop35
280
     0
102
RTVSPost2010PropOp35
 70
     1
102
RTVSPost2010Prop36
280
     0
102
RTVSPost2010PropOp36
 70
     1
102
RTVSPost2010Prop37
 90
       50
102
RTVSPost2010PropOp37
 70
     1
102
RTVSPost2010Prop38
140
0.0
102
RTVSPost2010PropOp38
 70
     1
102
RTVSPost2010Prop39
140
1.0
102
RTVSPost2010PropOp39
 70
     1
102
RTVSPost2010Prop40
 90
        0
102
RTVSPost2010PropOp40
 70
     1
102
RTVSPost2010Prop41ColorIndex
 90
       18
102
RTVSPost2010Prop41ColorRGB
 90
        0
102
RTVSPost2010PropOp41
 70
     1
102
RTVSPost2010Prop42
 90
       50
102
RTVSPost2010PropOp42
 70
     1
102
RTVSPost2010Prop43
 90
        3
102
RTVSPost2010PropOp43
 70
     1
102
RTVSPost2010Prop44ColorIndex
 90
        5
102
RTVSPost2010Prop44ColorRGB
 90
      255
102
RTVSPost2010PropOp44
 70
     1
102
RTVSPost2010Prop45
280
     0
102
RTVSPost2010PropOp45
 70
     1
102
RTVSPost2010Prop46
 90
       50
102
RTVSPost2010PropOp46
 70
     1
102
RTVSPost2010Prop47
 90
       50
102
RTVSPost2010PropOp47
 70
     1
102
RTVSPost2010Prop48
 90
       50
102
RTVSPost2010PropOp48
 70
     1
102
RTVSPost2010Prop49
280
     0
102
RTVSPost2010PropOp49
 70
     1
102
RTVSPost2010Prop50
 90
       50
102
RTVSPost2010PropOp50
 70
     1
102
RTVSPost2010Prop51ColorIndex
 90
      256
102
RTVSPost2010Prop51ColorRGB
 90
-16777216
102
RTVSPost2010PropOp51
 70
     0
102
RTVSPost2010Prop52
140
1.0
102
RTVSPost2010PropOp52
 70
     0
102
RTVSPost2010Prop53
 90
        2
102
RTVSPost2010PropOp53
 70
     1
102
RTVSPost2010Prop54
  1
strokes_ogs.tif
102
RTVSPost2010PropOp54
 70
     1
102
RTVSPost2010Prop55
280
     0
102
RTVSPost2010PropOp55
 70
     1
102
RTVSPost2010Prop56
140
1.0
102
RTVSPost2010PropOp56
 70
     1
102
RTVSPost2010Prop57
140
1.0
102
RTVSPost2010PropOp57
 70
     1
102
RTVSPropertyOp0
 70
     1
102
RTVSPropertyOp1
 70
     1
102
RTVSPropertyOp2
 70
     1
102
RTVSPropertyOp3
 70
     1
102
RTVSPropertyOp4
 70
     1
102
RTVSPropertyOp5
 70
     1
102
RTVSPropertyOp6
 70
     1
102
RTVSPropertyOp7
 70
     1
102
RTVSPropertyOp8
 70
     1
102
RTVSPropertyOp9
 70
     1
102
RTVSPropertyOp10
 70
     1
102
RTVSPropertyOp11
 70
     1
102
RTVSPropertyOp12
 70
     1
102
RTVSPropertyOp13
 70
     1
102
RTVSPropertyOp14
 70
     1
102
RTVSPropertyOp15
 70
     1
102
RTVSPropertyOp16
 70
     1
102
RTVSPropertyOp17
 70
     1
102
RTVSPropertyOp18
 70
     1
102
RTVSPropertyOp19
 70
     1
102
RTVSPropertyOp20
 70
     1
102
RTVSPropertyOp21
 70
     1
102
RTVSPropertyOp22
 70
     1
102
RTVSPropertyOp23
 70
     1
102
RTVSPropertyOp24
 70
     1
102
RTVSPropertyOp25
 70
     1
102
RTVSPropertyOp26
 70
     1
102
RTVSPropertyOp27
 70
     1
102
RTVSPropertyOp28
 70
     1
102
RTVSPropertyOp29
 70
     1
102
RTVSPropertyOp30
 70
     1
102
RTVSPropertyOp31
 70
     1
102
RTVSPropertyOp32
 70
     1
102
RTVSPropertyOp33
 70
     1
102
RTVSPropertyOp34
 70
     1
102
RTVSPropertyOp35
 70
     1
102
RTVSPropertyOp36
 70
     1
102
RTVSPropertyOp37
 70
     1
102
RTVSPropertyOp38
 70
     1
102
RTVSPropertyOp39
 70
     1
102
RTVSPropertyOp40
 70
     1
102
RTVSPropertyOp41
 70
     1
102
RTVSPropertyOp42
 70
     1
102
RTVSPropertyOp43
 70
     1
102
RTVSPropertyOp44
 70
     1
102
RTVSPropertyOp45
 70
     1
102
RTVSPropertyOp46
 70
     1
102
RTVSPropertyOp47
 70
     1
102
RTVSPropertyOp48
 70
     1
102
RTVSPropertyOp49
 70
     1
102
RTVSPropertyOp50
 70
     1
102
RTVSPropertyOp51
 70
     0
102
RTVSPropertyOp52
 70
     0
102
RTVSPropertyOp53
 70
     1
102
RTVSPropertyOp54
 70
     1
102
RTVSPropertyOp55
 70
     1
102
RTVSPropertyOp56
 70
     1
102
RTVSPropertyOp57
 70
     1
102
RTVSPropertyOp58
 70
     1
102
RTVSPropertyOp59
 70
     1
102
RTVSPropertyOp60
 70
     1
102
RTVSPropertyOp61
 70
     1
102
RTVSPropertyOp62
 70
     1
  0
XRECORD
  5
45D
102
{ACAD_REACTORS
330
45C
102
}
330
45C
100
AcDbXrecord
280
     1
102
RTVSPost2010Prop28
280
     0
102
RTVSPost2010PropOp28
 70
     1
102
RTVSPost2010Prop29
280
     1
102
RTVSPost2010PropOp29
 70
     1
102
RTVSPost2010Prop30
280
     1
102
RTVSPost2010PropOp30
 70
     1
102
RTVSPost2010Prop31
280
     0
102
RTVSPost2010PropOp31
 70
     1
102
RTVSPost2010Prop32
280
     0
102
RTVSPost2010PropOp32
 70
     1
102
RTVSPost2010Prop33
280
     0
102
RTVSPost2010PropOp33
 70
     1
102
RTVSPost2010Prop34
280
     0
102
RTVSPost2010PropOp34
 70
     1
102
RTVSPost2010Prop35
280
     0
102
RTVSPost2010PropOp35
 70
     1
102
RTVSPost2010Prop36
280
     0
102
RTVSPost2010PropOp36
 70
     1
102
RTVSPost2010Prop37
 90
       50
102
RTVSPost2010PropOp37
 70
     1
102
RTVSPost2010Prop38
140
0.0
102
RTVSPost2010PropOp38
 70
     1
102
RTVSPost2010Prop39
140
1.0
102
RTVSPost2010PropOp39
 70
     1
102
RTVSPost2010Prop40
 90
        0
102
RTVSPost2010PropOp40
 70
     1
102
RTVSPost2010Prop41ColorIndex
 90
       18
102
RTVSPost2010Prop41ColorRGB
 90
        0
102
RTVSPost2010PropOp41
 70
     1
102
RTVSPost2010Prop42
 90
       50
102
RTVSPost2010PropOp42
 70
     1
102
RTVSPost2010Prop43
 90
        3
102
RTVSPost2010PropOp43
 70
     1
102
RTVSPost2010Prop44ColorIndex
 90
        5
102
RTVSPost2010Prop44ColorRGB
 90
      255
102
RTVSPost2010PropOp44
 70
     1
102
RTVSPost2010Prop45
280
     0
102
RTVSPost2010PropOp45
 70
     1
102
RTVSPost2010Prop46
 90
       50
102
RTVSPost2010PropOp46
 70
     1
102
RTVSPost2010Prop47
 90
       50
102
RTVSPost2010PropOp47
 70
     1
102
RTVSPost2010Prop48
 90
       50
102
RTVSPost2010PropOp48
 70
     1
102
RTVSPost2010Prop49
280
     0
102
RTVSPost2010PropOp49
 70
     1
102
RTVSPost2010Prop50
 90
       50
102
RTVSPost2010PropOp50
 70
     1
102
RTVSPost2010Prop51ColorIndex
 90
      256
102
RTVSPost2010Prop51ColorRGB
 90
-16777216
102
RTVSPost2010PropOp51
 70
     0
102
RTVSPost2010Prop52
140
1.0
102
RTVSPost2010PropOp52
 70
     0
102
RTVSPost2010Prop53
 90
        2
102
RTVSPost2010PropOp53
 70
     1
102
RTVSPost2010Prop54
  1
strokes_ogs.tif
102
RTVSPost2010PropOp54
 70
     1
102
RTVSPost2010Prop55
280
     0
102
RTVSPost2010PropOp55
 70
     1
102
RTVSPost2010Prop56
140
1.0
102
RTVSPost2010PropOp56
 70
     1
102
RTVSPost2010Prop57
140
1.0
102
RTVSPost2010PropOp57
 70
     1
102
RTVSPropertyOp0
 70
     1
102
RTVSPropertyOp1
 70
     1
102
RTVSPropertyOp2
 70
     1
102
RTVSPropertyOp3
 70
     1
102
RTVSPropertyOp4
 70
     1
102
RTVSPropertyOp5
 70
     1
102
RTVSPropertyOp6
 70
     1
102
RTVSPropertyOp7
 70
     1
102
RTVSPropertyOp8
 70
     1
102
RTVSPropertyOp9
 70
     1
102
RTVSPropertyOp10
 70
     1
102
RTVSPropertyOp11
 70
     1
102
RTVSPropertyOp12
 70
     1
102
RTVSPropertyOp13
 70
     1
102
RTVSPropertyOp14
 70
     1
102
RTVSPropertyOp15
 70
     1
102
RTVSPropertyOp16
 70
     1
102
RTVSPropertyOp17
 70
     1
102
RTVSPropertyOp18
 70
     1
102
RTVSPropertyOp19
 70
     1
102
RTVSPropertyOp20
 70
     1
102
RTVSPropertyOp21
 70
     1
102
RTVSPropertyOp22
 70
     1
102
RTVSPropertyOp23
 70
     1
102
RTVSPropertyOp24
 70
     1
102
RTVSPropertyOp25
 70
     1
102
RTVSPropertyOp26
 70
     1
102
RTVSPropertyOp27
 70
     1
102
RTVSPropertyOp28
 70
     1
102
RTVSPropertyOp29
 70
     1
102
RTVSPropertyOp30
 70
     1
102
RTVSPropertyOp31
 70
     1
102
RTVSPropertyOp32
 70
     1
102
RTVSPropertyOp33
 70
     1
102
RTVSPropertyOp34
 70
     1
102
RTVSPropertyOp35
 70
     1
102
RTVSPropertyOp36
 70
     1
102
RTVSPropertyOp37
 70
     1
102
RTVSPropertyOp38
 70
     1
102
RTVSPropertyOp39
 70
     1
102
RTVSPropertyOp40
 70
     1
102
RTVSPropertyOp41
 70
     1
102
RTVSPropertyOp42
 70
     1
102
RTVSPropertyOp43
 70
     1
102
RTVSPropertyOp44
 70
     1
102
RTVSPropertyOp45
 70
     1
102
RTVSPropertyOp46
 70
     1
102
RTVSPropertyOp47
 70
     1
102
RTVSPropertyOp48
 70
     1
102
RTVSPropertyOp49
 70
     1
102
RTVSPropertyOp50
 70
     1
102
RTVSPropertyOp51
 70
     0
102
RTVSPropertyOp52
 70
     0
102
RTVSPropertyOp53
 70
     1
102
RTVSPropertyOp54
 70
     1
102
RTVSPropertyOp55
 70
     1
102
RTVSPropertyOp56
 70
     1
102
RTVSPropertyOp57
 70
     1
102
RTVSPropertyOp58
 70
     1
102
RTVSPropertyOp59
 70
     1
102
RTVSPropertyOp60
 70
     1
102
RTVSPropertyOp61
 70
     1
102
RTVSPropertyOp62
 70
     1
  0
XRECORD
  5
45F
102
{ACAD_REACTORS
330
45E
102
}
330
45E
100
AcDbXrecord
280
     1
102
RTVSPost2010Prop28
280
     0
102
RTVSPost2010PropOp28
 70
     1
102
RTVSPost2010Prop29
280
     1
102
RTVSPost2010PropOp29
 70
     1
102
RTVSPost2010Prop30
280
     1
102
RTVSPost2010PropOp30
 70
     1
102
RTVSPost2010Prop31
280
     0
102
RTVSPost2010PropOp31
 70
     1
102
RTVSPost2010Prop32
280
     0
102
RTVSPost2010PropOp32
 70
     1
102
RTVSPost2010Prop33
280
     0
102
RTVSPost2010PropOp33
 70
     1
102
RTVSPost2010Prop34
280
     0
102
RTVSPost2010PropOp34
 70
     1
102
RTVSPost2010Prop35
280
     0
102
RTVSPost2010PropOp35
 70
     1
102
RTVSPost2010Prop36
280
     0
102
RTVSPost2010PropOp36
 70
     1
102
RTVSPost2010Prop37
 90
       50
102
RTVSPost2010PropOp37
 70
     1
102
RTVSPost2010Prop38
140
0.0
102
RTVSPost2010PropOp38
 70
     1
102
RTVSPost2010Prop39
140
1.0
102
RTVSPost2010PropOp39
 70
     1
102
RTVSPost2010Prop40
 90
        0
102
RTVSPost2010PropOp40
 70
     1
102
RTVSPost2010Prop41ColorIndex
 90
       18
102
RTVSPost2010Prop41ColorRGB
 90
        0
102
RTVSPost2010PropOp41
 70
     1
102
RTVSPost2010Prop42
 90
       50
102
RTVSPost2010PropOp42
 70
     1
102
RTVSPost2010Prop43
 90
        3
102
RTVSPost2010PropOp43
 70
     1
102
RTVSPost2010Prop44ColorIndex
 90
        5
102
RTVSPost2010Prop44ColorRGB
 90
      255
102
RTVSPost2010PropOp44
 70
     1
102
RTVSPost2010Prop45
280
     0
102
RTVSPost2010PropOp45
 70
     1
102
RTVSPost2010Prop46
 90
       50
102
RTVSPost2010PropOp46
 70
     1
102
RTVSPost2010Prop47
 90
       50
102
RTVSPost2010PropOp47
 70
     1
102
RTVSPost2010Prop48
 90
       50
102
RTVSPost2010PropOp48
 70
     1
102
RTVSPost2010Prop49
280
     0
102
RTVSPost2010PropOp49
 70
     1
102
RTVSPost2010Prop50
 90
       50
102
RTVSPost2010PropOp50
 70
     1
102
RTVSPost2010Prop51ColorIndex
 90
      256
102
RTVSPost2010Prop51ColorRGB
 90
-16777216
102
RTVSPost2010PropOp51
 70
     0
102
RTVSPost2010Prop52
140
1.0
102
RTVSPost2010PropOp52
 70
     0
102
RTVSPost2010Prop53
 90
        2
102
RTVSPost2010PropOp53
 70
     1
102
RTVSPost2010Prop54
  1
strokes_ogs.tif
102
RTVSPost2010PropOp54
 70
     1
102
RTVSPost2010Prop55
280
     0
102
RTVSPost2010PropOp55
 70
     1
102
RTVSPost2010Prop56
140
1.0
102
RTVSPost2010PropOp56
 70
     1
102
RTVSPost2010Prop57
140
1.0
102
RTVSPost2010PropOp57
 70
     1
102
RTVSPropertyOp0
 70
     1
102
RTVSPropertyOp1
 70
     1
102
RTVSPropertyOp2
 70
     1
102
RTVSPropertyOp3
 70
     1
102
RTVSPropertyOp4
 70
     1
102
RTVSPropertyOp5
 70
     1
102
RTVSPropertyOp6
 70
     1
102
RTVSPropertyOp7
 70
     1
102
RTVSPropertyOp8
 70
     1
102
RTVSPropertyOp9
 70
     1
102
RTVSPropertyOp10
 70
     1
102
RTVSPropertyOp11
 70
     1
102
RTVSPropertyOp12
 70
     1
102
RTVSPropertyOp13
 70
     1
102
RTVSPropertyOp14
 70
     1
102
RTVSPropertyOp15
 70
     1
102
RTVSPropertyOp16
 70
     1
102
RTVSPropertyOp17
 70
     1
102
RTVSPropertyOp18
 70
     1
102
RTVSPropertyOp19
 70
     1
102
RTVSPropertyOp20
 70
     1
102
RTVSPropertyOp21
 70
     1
102
RTVSPropertyOp22
 70
     1
102
RTVSPropertyOp23
 70
     1
102
RTVSPropertyOp24
 70
     1
102
RTVSPropertyOp25
 70
     1
102
RTVSPropertyOp26
 70
     1
102
RTVSPropertyOp27
 70
     1
102
RTVSPropertyOp28
 70
     1
102
RTVSPropertyOp29
 70
     1
102
RTVSPropertyOp30
 70
     1
102
RTVSPropertyOp31
 70
     1
102
RTVSPropertyOp32
 70
     1
102
RTVSPropertyOp33
 70
     1
102
RTVSPropertyOp34
 70
     1
102
RTVSPropertyOp35
 70
     1
102
RTVSPropertyOp36
 70
     1
102
RTVSPropertyOp37
 70
     1
102
RTVSPropertyOp38
 70
     1
102
RTVSPropertyOp39
 70
     1
102
RTVSPropertyOp40
 70
     1
102
RTVSPropertyOp41
 70
     1
102
RTVSPropertyOp42
 70
     1
102
RTVSPropertyOp43
 70
     1
102
RTVSPropertyOp44
 70
     1
102
RTVSPropertyOp45
 70
     1
102
RTVSPropertyOp46
 70
     1
102
RTVSPropertyOp47
 70
     1
102
RTVSPropertyOp48
 70
     1
102
RTVSPropertyOp49
 70
     1
102
RTVSPropertyOp50
 70
     1
102
RTVSPropertyOp51
 70
     0
102
RTVSPropertyOp52
 70
     0
102
RTVSPropertyOp53
 70
     1
102
RTVSPropertyOp54
 70
     1
102
RTVSPropertyOp55
 70
     1
102
RTVSPropertyOp56
 70
     1
102
RTVSPropertyOp57
 70
     1
102
RTVSPropertyOp58
 70
     1
102
RTVSPropertyOp59
 70
     1
102
RTVSPropertyOp60
 70
     1
102
RTVSPropertyOp61
 70
     1
102
RTVSPropertyOp62
 70
     1
  0
XRECORD
  5
455
102
{ACAD_REACTORS
330
454
102
}
330
454
100
AcDbXrecord
280
     1
102
RTVSPost2010Prop28
280
     0
102
RTVSPost2010PropOp28
 70
     1
102
RTVSPost2010Prop29
280
     1
102
RTVSPost2010PropOp29
 70
     1
102
RTVSPost2010Prop30
280
     1
102
RTVSPost2010PropOp30
 70
     1
102
RTVSPost2010Prop31
280
     0
102
RTVSPost2010PropOp31
 70
     1
102
RTVSPost2010Prop32
280
     0
102
RTVSPost2010PropOp32
 70
     1
102
RTVSPost2010Prop33
280
     0
102
RTVSPost2010PropOp33
 70
     1
102
RTVSPost2010Prop34
280
     0
102
RTVSPost2010PropOp34
 70
     1
102
RTVSPost2010Prop35
280
     0
102
RTVSPost2010PropOp35
 70
     1
102
RTVSPost2010Prop36
280
     0
102
RTVSPost2010PropOp36
 70
     1
102
RTVSPost2010Prop37
 90
       50
102
RTVSPost2010PropOp37
 70
     1
102
RTVSPost2010Prop38
140
0.0
102
RTVSPost2010PropOp38
 70
     1
102
RTVSPost2010Prop39
140
1.0
102
RTVSPost2010PropOp39
 70
     1
102
RTVSPost2010Prop40
 90
        0
102
RTVSPost2010PropOp40
 70
     1
102
RTVSPost2010Prop41ColorIndex
 90
       18
102
RTVSPost2010Prop41ColorRGB
 90
        0
102
RTVSPost2010PropOp41
 70
     1
102
RTVSPost2010Prop42
 90
       50
102
RTVSPost2010PropOp42
 70
     1
102
RTVSPost2010Prop43
 90
        3
102
RTVSPost2010PropOp43
 70
     1
102
RTVSPost2010Prop44ColorIndex
 90
        5
102
RTVSPost2010Prop44ColorRGB
 90
      255
102
RTVSPost2010PropOp44
 70
     1
102
RTVSPost2010Prop45
280
     0
102
RTVSPost2010PropOp45
 70
     1
102
RTVSPost2010Prop46
 90
       50
102
RTVSPost2010PropOp46
 70
     1
102
RTVSPost2010Prop47
 90
       50
102
RTVSPost2010PropOp47
 70
     1
102
RTVSPost2010Prop48
 90
       50
102
RTVSPost2010PropOp48
 70
     1
102
RTVSPost2010Prop49
280
     0
102
RTVSPost2010PropOp49
 70
     1
102
RTVSPost2010Prop50
 90
       50
102
RTVSPost2010PropOp50
 70
     1
102
RTVSPost2010Prop51ColorIndex
 90
      256
102
RTVSPost2010Prop51ColorRGB
 90
-16777216
102
RTVSPost2010PropOp51
 70
     0
102
RTVSPost2010Prop52
140
1.0
102
RTVSPost2010PropOp52
 70
     0
102
RTVSPost2010Prop53
 90
        2
102
RTVSPost2010PropOp53
 70
     1
102
RTVSPost2010Prop54
  1
strokes_ogs.tif
102
RTVSPost2010PropOp54
 70
     1
102
RTVSPost2010Prop55
280
     0
102
RTVSPost2010PropOp55
 70
     1
102
RTVSPost2010Prop56
140
1.0
102
RTVSPost2010PropOp56
 70
     1
102
RTVSPost2010Prop57
140
1.0
102
RTVSPost2010PropOp57
 70
     1
102
RTVSPropertyOp0
 70
     1
102
RTVSPropertyOp1
 70
     1
102
RTVSPropertyOp2
 70
     1
102
RTVSPropertyOp3
 70
     1
102
RTVSPropertyOp4
 70
     1
102
RTVSPropertyOp5
 70
     1
102
RTVSPropertyOp6
 70
     1
102
RTVSPropertyOp7
 70
     1
102
RTVSPropertyOp8
 70
     1
102
RTVSPropertyOp9
 70
     1
102
RTVSPropertyOp10
 70
     1
102
RTVSPropertyOp11
 70
     1
102
RTVSPropertyOp12
 70
     1
102
RTVSPropertyOp13
 70
     1
102
RTVSPropertyOp14
 70
     1
102
RTVSPropertyOp15
 70
     1
102
RTVSPropertyOp16
 70
     1
102
RTVSPropertyOp17
 70
     1
102
RTVSPropertyOp18
 70
     1
102
RTVSPropertyOp19
 70
     1
102
RTVSPropertyOp20
 70
     1
102
RTVSPropertyOp21
 70
     1
102
RTVSPropertyOp22
 70
     1
102
RTVSPropertyOp23
 70
     1
102
RTVSPropertyOp24
 70
     1
102
RTVSPropertyOp25
 70
     1
102
RTVSPropertyOp26
 70
     1
102
RTVSPropertyOp27
 70
     1
102
RTVSPropertyOp28
 70
     1
102
RTVSPropertyOp29
 70
     1
102
RTVSPropertyOp30
 70
     1
102
RTVSPropertyOp31
 70
     1
102
RTVSPropertyOp32
 70
     1
102
RTVSPropertyOp33
 70
     1
102
RTVSPropertyOp34
 70
     1
102
RTVSPropertyOp35
 70
     1
102
RTVSPropertyOp36
 70
     1
102
RTVSPropertyOp37
 70
     1
102
RTVSPropertyOp38
 70
     1
102
RTVSPropertyOp39
 70
     1
102
RTVSPropertyOp40
 70
     1
102
RTVSPropertyOp41
 70
     1
102
RTVSPropertyOp42
 70
     1
102
RTVSPropertyOp43
 70
     1
102
RTVSPropertyOp44
 70
     1
102
RTVSPropertyOp45
 70
     1
102
RTVSPropertyOp46
 70
     1
102
RTVSPropertyOp47
 70
     1
102
RTVSPropertyOp48
 70
     1
102
RTVSPropertyOp49
 70
     1
102
RTVSPropertyOp50
 70
     1
102
RTVSPropertyOp51
 70
     0
102
RTVSPropertyOp52
 70
     0
102
RTVSPropertyOp53
 70
     1
102
RTVSPropertyOp54
 70
     1
102
RTVSPropertyOp55
 70
     1
102
RTVSPropertyOp56
 70
     1
102
RTVSPropertyOp57
 70
     1
102
RTVSPropertyOp58
 70
     1
102
RTVSPropertyOp59
 70
     1
102
RTVSPropertyOp60
 70
     1
102
RTVSPropertyOp61
 70
     1
102
RTVSPropertyOp62
 70
     1
  0
XRECORD
  5
449
102
{ACAD_REACTORS
330
448
102
}
330
448
100
AcDbXrecord
280
     1
102
RTVSPost2010Prop28
280
     0
102
RTVSPost2010PropOp28
 70
     1
102
RTVSPost2010Prop29
280
     1
102
RTVSPost2010PropOp29
 70
     1
102
RTVSPost2010Prop30
280
     1
102
RTVSPost2010PropOp30
 70
     1
102
RTVSPost2010Prop31
280
     0
102
RTVSPost2010PropOp31
 70
     1
102
RTVSPost2010Prop32
280
     0
102
RTVSPost2010PropOp32
 70
     1
102
RTVSPost2010Prop33
280
     0
102
RTVSPost2010PropOp33
 70
     1
102
RTVSPost2010Prop34
280
     0
102
RTVSPost2010PropOp34
 70
     1
102
RTVSPost2010Prop35
280
     0
102
RTVSPost2010PropOp35
 70
     1
102
RTVSPost2010Prop36
280
     0
102
RTVSPost2010PropOp36
 70
     1
102
RTVSPost2010Prop37
 90
       50
102
RTVSPost2010PropOp37
 70
     1
102
RTVSPost2010Prop38
140
0.0
102
RTVSPost2010PropOp38
 70
     1
102
RTVSPost2010Prop39
140
1.0
102
RTVSPost2010PropOp39
 70
     1
102
RTVSPost2010Prop40
 90
        0
102
RTVSPost2010PropOp40
 70
     1
102
RTVSPost2010Prop41ColorIndex
 90
       18
102
RTVSPost2010Prop41ColorRGB
 90
        0
102
RTVSPost2010PropOp41
 70
     1
102
RTVSPost2010Prop42
 90
       50
102
RTVSPost2010PropOp42
 70
     1
102
RTVSPost2010Prop43
 90
        3
102
RTVSPost2010PropOp43
 70
     1
102
RTVSPost2010Prop44ColorIndex
 90
        5
102
RTVSPost2010Prop44ColorRGB
 90
      255
102
RTVSPost2010PropOp44
 70
     1
102
RTVSPost2010Prop45
280
     0
102
RTVSPost2010PropOp45
 70
     1
102
RTVSPost2010Prop46
 90
       50
102
RTVSPost2010PropOp46
 70
     1
102
RTVSPost2010Prop47
 90
       50
102
RTVSPost2010PropOp47
 70
     1
102
RTVSPost2010Prop48
 90
       50
102
RTVSPost2010PropOp48
 70
     1
102
RTVSPost2010Prop49
280
     0
102
RTVSPost2010PropOp49
 70
     1
102
RTVSPost2010Prop50
 90
       50
102
RTVSPost2010PropOp50
 70
     1
102
RTVSPost2010Prop51ColorIndex
 90
      256
102
RTVSPost2010Prop51ColorRGB
 90
-16777216
102
RTVSPost2010PropOp51
 70
     0
102
RTVSPost2010Prop52
140
1.0
102
RTVSPost2010PropOp52
 70
     0
102
RTVSPost2010Prop53
 90
        2
102
RTVSPost2010PropOp53
 70
     1
102
RTVSPost2010Prop54
  1
strokes_ogs.tif
102
RTVSPost2010PropOp54
 70
     1
102
RTVSPost2010Prop55
280
     0
102
RTVSPost2010PropOp55
 70
     1
102
RTVSPost2010Prop56
140
1.0
102
RTVSPost2010PropOp56
 70
     1
102
RTVSPost2010Prop57
140
1.0
102
RTVSPost2010PropOp57
 70
     1
102
RTVSPropertyOp0
 70
     1
102
RTVSPropertyOp1
 70
     1
102
RTVSPropertyOp2
 70
     1
102
RTVSPropertyOp3
 70
     1
102
RTVSPropertyOp4
 70
     1
102
RTVSPropertyOp5
 70
     1
102
RTVSPropertyOp6
 70
     1
102
RTVSPropertyOp7
 70
     1
102
RTVSPropertyOp8
 70
     1
102
RTVSPropertyOp9
 70
     1
102
RTVSPropertyOp10
 70
     1
102
RTVSPropertyOp11
 70
     1
102
RTVSPropertyOp12
 70
     1
102
RTVSPropertyOp13
 70
     1
102
RTVSPropertyOp14
 70
     1
102
RTVSPropertyOp15
 70
     1
102
RTVSPropertyOp16
 70
     1
102
RTVSPropertyOp17
 70
     1
102
RTVSPropertyOp18
 70
     1
102
RTVSPropertyOp19
 70
     1
102
RTVSPropertyOp20
 70
     1
102
RTVSPropertyOp21
 70
     1
102
RTVSPropertyOp22
 70
     1
102
RTVSPropertyOp23
 70
     1
102
RTVSPropertyOp24
 70
     1
102
RTVSPropertyOp25
 70
     1
102
RTVSPropertyOp26
 70
     1
102
RTVSPropertyOp27
 70
     1
102
RTVSPropertyOp28
 70
     1
102
RTVSPropertyOp29
 70
     1
102
RTVSPropertyOp30
 70
     1
102
RTVSPropertyOp31
 70
     1
102
RTVSPropertyOp32
 70
     1
102
RTVSPropertyOp33
 70
     1
102
RTVSPropertyOp34
 70
     1
102
RTVSPropertyOp35
 70
     1
102
RTVSPropertyOp36
 70
     1
102
RTVSPropertyOp37
 70
     1
102
RTVSPropertyOp38
 70
     1
102
RTVSPropertyOp39
 70
     1
102
RTVSPropertyOp40
 70
     1
102
RTVSPropertyOp41
 70
     1
102
RTVSPropertyOp42
 70
     1
102
RTVSPropertyOp43
 70
     1
102
RTVSPropertyOp44
 70
     1
102
RTVSPropertyOp45
 70
     1
102
RTVSPropertyOp46
 70
     1
102
RTVSPropertyOp47
 70
     1
102
RTVSPropertyOp48
 70
     1
102
RTVSPropertyOp49
 70
     1
102
RTVSPropertyOp50
 70
     1
102
RTVSPropertyOp51
 70
     0
102
RTVSPropertyOp52
 70
     0
102
RTVSPropertyOp53
 70
     1
102
RTVSPropertyOp54
 70
     1
102
RTVSPropertyOp55
 70
     1
102
RTVSPropertyOp56
 70
     1
102
RTVSPropertyOp57
 70
     1
102
RTVSPropertyOp58
 70
     1
102
RTVSPropertyOp59
 70
     1
102
RTVSPropertyOp60
 70
     1
102
RTVSPropertyOp61
 70
     1
102
RTVSPropertyOp62
 70
     1
  0
XRECORD
  5
461
102
{ACAD_REACTORS
330
460
102
}
330
460
100
AcDbXrecord
280
     1
102
RTVSPost2010Prop28
280
     0
102
RTVSPost2010PropOp28
 70
     1
102
RTVSPost2010Prop29
280
     1
102
RTVSPost2010PropOp29
 70
     1
102
RTVSPost2010Prop30
280
     1
102
RTVSPost2010PropOp30
 70
     1
102
RTVSPost2010Prop31
280
     0
102
RTVSPost2010PropOp31
 70
     1
102
RTVSPost2010Prop32
280
     0
102
RTVSPost2010PropOp32
 70
     1
102
RTVSPost2010Prop33
280
     0
102
RTVSPost2010PropOp33
 70
     1
102
RTVSPost2010Prop34
280
     0
102
RTVSPost2010PropOp34
 70
     1
102
RTVSPost2010Prop35
280
     0
102
RTVSPost2010PropOp35
 70
     1
102
RTVSPost2010Prop36
280
     0
102
RTVSPost2010PropOp36
 70
     1
102
RTVSPost2010Prop37
 90
       50
102
RTVSPost2010PropOp37
 70
     1
102
RTVSPost2010Prop38
140
0.0
102
RTVSPost2010PropOp38
 70
     1
102
RTVSPost2010Prop39
140
1.0
102
RTVSPost2010PropOp39
 70
     1
102
RTVSPost2010Prop40
 90
        0
102
RTVSPost2010PropOp40
 70
     1
102
RTVSPost2010Prop41ColorIndex
 90
       18
102
RTVSPost2010Prop41ColorRGB
 90
        0
102
RTVSPost2010PropOp41
 70
     1
102
RTVSPost2010Prop42
 90
       50
102
RTVSPost2010PropOp42
 70
     1
102
RTVSPost2010Prop43
 90
        3
102
RTVSPost2010PropOp43
 70
     1
102
RTVSPost2010Prop44ColorIndex
 90
        5
102
RTVSPost2010Prop44ColorRGB
 90
      255
102
RTVSPost2010PropOp44
 70
     1
102
RTVSPost2010Prop45
280
     0
102
RTVSPost2010PropOp45
 70
     1
102
RTVSPost2010Prop46
 90
       50
102
RTVSPost2010PropOp46
 70
     1
102
RTVSPost2010Prop47
 90
       50
102
RTVSPost2010PropOp47
 70
     1
102
RTVSPost2010Prop48
 90
       50
102
RTVSPost2010PropOp48
 70
     1
102
RTVSPost2010Prop49
280
     0
102
RTVSPost2010PropOp49
 70
     1
102
RTVSPost2010Prop50
 90
       50
102
RTVSPost2010PropOp50
 70
     1
102
RTVSPost2010Prop51ColorIndex
 90
      256
102
RTVSPost2010Prop51ColorRGB
 90
-16777216
102
RTVSPost2010PropOp51
 70
     0
102
RTVSPost2010Prop52
140
1.0
102
RTVSPost2010PropOp52
 70
     0
102
RTVSPost2010Prop53
 90
        2
102
RTVSPost2010PropOp53
 70
     1
102
RTVSPost2010Prop54
  1
strokes_ogs.tif
102
RTVSPost2010PropOp54
 70
     1
102
RTVSPost2010Prop55
280
     0
102
RTVSPost2010PropOp55
 70
     1
102
RTVSPost2010Prop56
140
1.0
102
RTVSPost2010PropOp56
 70
     1
102
RTVSPost2010Prop57
140
1.0
102
RTVSPost2010PropOp57
 70
     1
102
RTVSPropertyOp0
 70
     1
102
RTVSPropertyOp1
 70
     1
102
RTVSPropertyOp2
 70
     1
102
RTVSPropertyOp3
 70
     1
102
RTVSPropertyOp4
 70
     1
102
RTVSPropertyOp5
 70
     1
102
RTVSPropertyOp6
 70
     1
102
RTVSPropertyOp7
 70
     1
102
RTVSPropertyOp8
 70
     1
102
RTVSPropertyOp9
 70
     1
102
RTVSPropertyOp10
 70
     1
102
RTVSPropertyOp11
 70
     1
102
RTVSPropertyOp12
 70
     1
102
RTVSPropertyOp13
 70
     1
102
RTVSPropertyOp14
 70
     1
102
RTVSPropertyOp15
 70
     1
102
RTVSPropertyOp16
 70
     1
102
RTVSPropertyOp17
 70
     1
102
RTVSPropertyOp18
 70
     1
102
RTVSPropertyOp19
 70
     1
102
RTVSPropertyOp20
 70
     1
102
RTVSPropertyOp21
 70
     1
102
RTVSPropertyOp22
 70
     1
102
RTVSPropertyOp23
 70
     1
102
RTVSPropertyOp24
 70
     1
102
RTVSPropertyOp25
 70
     1
102
RTVSPropertyOp26
 70
     1
102
RTVSPropertyOp27
 70
     1
102
RTVSPropertyOp28
 70
     1
102
RTVSPropertyOp29
 70
     1
102
RTVSPropertyOp30
 70
     1
102
RTVSPropertyOp31
 70
     1
102
RTVSPropertyOp32
 70
     1
102
RTVSPropertyOp33
 70
     1
102
RTVSPropertyOp34
 70
     1
102
RTVSPropertyOp35
 70
     1
102
RTVSPropertyOp36
 70
     1
102
RTVSPropertyOp37
 70
     1
102
RTVSPropertyOp38
 70
     1
102
RTVSPropertyOp39
 70
     1
102
RTVSPropertyOp40
 70
     1
102
RTVSPropertyOp41
 70
     1
102
RTVSPropertyOp42
 70
     1
102
RTVSPropertyOp43
 70
     1
102
RTVSPropertyOp44
 70
     1
102
RTVSPropertyOp45
 70
     1
102
RTVSPropertyOp46
 70
     1
102
RTVSPropertyOp47
 70
     1
102
RTVSPropertyOp48
 70
     1
102
RTVSPropertyOp49
 70
     1
102
RTVSPropertyOp50
 70
     1
102
RTVSPropertyOp51
 70
     0
102
RTVSPropertyOp52
 70
     0
102
RTVSPropertyOp53
 70
     1
102
RTVSPropertyOp54
 70
     1
102
RTVSPropertyOp55
 70
     1
102
RTVSPropertyOp56
 70
     1
102
RTVSPropertyOp57
 70
     1
102
RTVSPropertyOp58
 70
     1
102
RTVSPropertyOp59
 70
     1
102
RTVSPropertyOp60
 70
     1
102
RTVSPropertyOp61
 70
     1
102
RTVSPropertyOp62
 70
     1
  0
ENDSEC
  0
EOF
